  0
SECTION
  2
HEADER
  9
$ACADVER
  1
AC1021
  9
$ACADMAINTVER
 70
     1
  9
$DWGCODEPAGE
  3
ANSI_1252
  9
$LASTSAVEDBY
  1
abianchi
  9
$INSBASE
 10
20458.73475052876
 20
-4578.0358171937
 30
0.0
  9
$EXTMIN
 10
18743.73475052876
 20
-4578.035817193701
 30
0.0
  9
$EXTMAX
 10
20458.73475052876
 20
-2838.035817193702
 30
0.0
  9
$LIMMIN
 10
0.0
 20
0.0
  9
$LIMMAX
 10
431.8
 20
279.4
  9
$ORTHOMODE
 70
     1
  9
$REGENMODE
 70
     1
  9
$FILLMODE
 70
     1
  9
$QTEXTMODE
 70
     0
  9
$MIRRTEXT
 70
     1
  9
$LTSCALE
 40
1.0
  9
$ATTMODE
 70
     1
  9
$TEXTSIZE
 40
0.2
  9
$TRACEWID
 40
0.05
  9
$TEXTSTYLE
  7
Standard
  9
$CLAYER
  8
dims
  9
$CELTYPE
  6
ByLayer
  9
$CECOLOR
 62
   256
  9
$CELTSCALE
 40
25.4
  9
$DISPSILH
 70
     0
  9
$DIMSCALE
 40
1.0
  9
$DIMASZ
 40
50.0
  9
$DIMEXO
 40
0.0625
  9
$DIMDLI
 40
0.38
  9
$DIMRND
 40
0.0
  9
$DIMDLE
 40
0.0
  9
$DIMEXE
 40
0.18
  9
$DIMTP
 40
0.0
  9
$DIMTM
 40
0.0
  9
$DIMTXT
 40
65.0
  9
$DIMCEN
 40
0.09
  9
$DIMTSZ
 40
0.0
  9
$DIMTOL
 70
     0
  9
$DIMLIM
 70
     0
  9
$DIMTIH
 70
     0
  9
$DIMTOH
 70
     0
  9
$DIMSE1
 70
     0
  9
$DIMSE2
 70
     0
  9
$DIMTAD
 70
     0
  9
$DIMZIN
 70
     0
  9
$DIMBLK
  1

  9
$DIMASO
 70
     1
  9
$DIMSHO
 70
     1
  9
$DIMPOST
  1
mm
  9
$DIMAPOST
  1

  9
$DIMALT
 70
     0
  9
$DIMALTD
 70
     2
  9
$DIMALTF
 40
25.4
  9
$DIMLFAC
 40
1.0
  9
$DIMTOFL
 70
     0
  9
$DIMTVP
 40
0.0
  9
$DIMTIX
 70
     0
  9
$DIMSOXD
 70
     0
  9
$DIMSAH
 70
     0
  9
$DIMBLK1
  1

  9
$DIMBLK2
  1

  9
$DIMSTYLE
  2
Standard
  9
$DIMCLRD
 70
     0
  9
$DIMCLRE
 70
     0
  9
$DIMCLRT
 70
     0
  9
$DIMTFAC
 40
1.0
  9
$DIMGAP
 40
0.09
  9
$DIMJUST
 70
     0
  9
$DIMSD1
 70
     0
  9
$DIMSD2
 70
     0
  9
$DIMTOLJ
 70
     1
  9
$DIMTZIN
 70
     0
  9
$DIMALTZ
 70
     0
  9
$DIMALTTZ
 70
     0
  9
$DIMUPT
 70
     0
  9
$DIMDEC
 70
     0
  9
$DIMTDEC
 70
     0
  9
$DIMALTU
 70
     2
  9
$DIMALTTD
 70
     2
  9
$DIMTXSTY
  7
Standard
  9
$DIMAUNIT
 70
     0
  9
$DIMADEC
 70
     0
  9
$DIMALTRND
 40
0.0
  9
$DIMAZIN
 70
     0
  9
$DIMDSEP
 70
    46
  9
$DIMATFIT
 70
     3
  9
$DIMFRAC
 70
     0
  9
$DIMLDRBLK
  1

  9
$DIMLUNIT
 70
     2
  9
$DIMLWD
 70
    -2
  9
$DIMLWE
 70
    -2
  9
$DIMTMOVE
 70
     0
  9
$DIMFXL
 40
1.0
  9
$DIMFXLON
 70
     0
  9
$DIMJOGANG
 40
0.7853981633974483
  9
$DIMTFILL
 70
     0
  9
$DIMTFILLCLR
 70
     0
  9
$DIMARCSYM
 70
     0
  9
$DIMLTYPE
  6

  9
$DIMLTEX1
  6

  9
$DIMLTEX2
  6

  9
$LUNITS
 70
     2
  9
$LUPREC
 70
     4
  9
$SKETCHINC
 40
0.1
  9
$FILLETRAD
 40
290.0
  9
$AUNITS
 70
     0
  9
$AUPREC
 70
     0
  9
$MENU
  1
.
  9
$ELEVATION
 40
0.0
  9
$PELEVATION
 40
0.0
  9
$THICKNESS
 40
0.0
  9
$LIMCHECK
 70
     0
  9
$CHAMFERA
 40
0.5
  9
$CHAMFERB
 40
0.5
  9
$CHAMFERC
 40
1.0
  9
$CHAMFERD
 40
0.0
  9
$SKPOLY
 70
     0
  9
$TDCREATE
 40
2454174.748590255
  9
$TDUCREATE
 40
2454174.706923588
  9
$TDUPDATE
 40
2455614.543811297
  9
$TDUUPDATE
 40
2455614.502144630
  9
$TDINDWG
 40
1.2574167361
  9
$TDUSRTIMER
 40
1.2574161921
  9
$USRTIMER
 70
     1
  9
$ANGBASE
 50
0.0
  9
$ANGDIR
 70
     0
  9
$PDMODE
 70
     0
  9
$PDSIZE
 40
0.0
  9
$PLINEWID
 40
0.0
  9
$SPLFRAME
 70
     0
  9
$SPLINETYPE
 70
     6
  9
$SPLINESEGS
 70
     8
  9
$HANDSEED
  5
142
  9
$SURFTAB1
 70
     6
  9
$SURFTAB2
 70
     6
  9
$SURFTYPE
 70
     6
  9
$SURFU
 70
     6
  9
$SURFV
 70
     6
  9
$UCSBASE
  2

  9
$UCSNAME
  2

  9
$UCSORG
 10
0.0
 20
0.0
 30
0.0
  9
$UCSXDIR
 10
1.0
 20
0.0
 30
0.0
  9
$UCSYDIR
 10
0.0
 20
1.0
 30
0.0
  9
$UCSORTHOREF
  2

  9
$UCSORTHOVIEW
 70
     0
  9
$UCSORGTOP
 10
0.0
 20
0.0
 30
0.0
  9
$UCSORGBOTTOM
 10
0.0
 20
0.0
 30
0.0
  9
$UCSORGLEFT
 10
0.0
 20
0.0
 30
0.0
  9
$UCSORGRIGHT
 10
0.0
 20
0.0
 30
0.0
  9
$UCSORGFRONT
 10
0.0
 20
0.0
 30
0.0
  9
$UCSORGBACK
 10
0.0
 20
0.0
 30
0.0
  9
$PUCSBASE
  2

  9
$PUCSNAME
  2

  9
$PUCSORG
 10
0.0
 20
0.0
 30
0.0
  9
$PUCSXDIR
 10
1.0
 20
0.0
 30
0.0
  9
$PUCSYDIR
 10
0.0
 20
1.0
 30
0.0
  9
$PUCSORTHOREF
  2

  9
$PUCSORTHOVIEW
 70
     0
  9
$PUCSORGTOP
 10
0.0
 20
0.0
 30
0.0
  9
$PUCSORGBOTTOM
 10
0.0
 20
0.0
 30
0.0
  9
$PUCSORGLEFT
 10
0.0
 20
0.0
 30
0.0
  9
$PUCSORGRIGHT
 10
0.0
 20
0.0
 30
0.0
  9
$PUCSORGFRONT
 10
0.0
 20
0.0
 30
0.0
  9
$PUCSORGBACK
 10
0.0
 20
0.0
 30
0.0
  9
$USERI1
 70
     0
  9
$USERI2
 70
     0
  9
$USERI3
 70
     0
  9
$USERI4
 70
     0
  9
$USERI5
 70
     0
  9
$USERR1
 40
0.0
  9
$USERR2
 40
0.0
  9
$USERR3
 40
0.0
  9
$USERR4
 40
0.0
  9
$USERR5
 40
0.0
  9
$WORLDVIEW
 70
     1
  9
$SHADEDGE
 70
     3
  9
$SHADEDIF
 70
    70
  9
$TILEMODE
 70
     1
  9
$MAXACTVP
 70
    64
  9
$PINSBASE
 10
0.0
 20
0.0
 30
0.0
  9
$PLIMCHECK
 70
     0
  9
$PEXTMIN
 10
0.0
 20
0.0
 30
0.0
  9
$PEXTMAX
 10
431.8
 20
279.4
 30
0.0
  9
$PLIMMIN
 10
0.0
 20
0.0
  9
$PLIMMAX
 10
12.0
 20
9.0
  9
$UNITMODE
 70
     0
  9
$VISRETAIN
 70
     1
  9
$PLINEGEN
 70
     0
  9
$PSLTSCALE
 70
     1
  9
$TREEDEPTH
 70
  3020
  9
$CMLSTYLE
  2
Standard
  9
$CMLJUST
 70
     0
  9
$CMLSCALE
 40
1.0
  9
$PROXYGRAPHICS
 70
     1
  9
$MEASUREMENT
 70
     1
  9
$CELWEIGHT
370
    -1
  9
$ENDCAPS
280
     0
  9
$JOINSTYLE
280
     0
  9
$LWDISPLAY
290
     0
  9
$INSUNITS
 70
     4
  9
$HYPERLINKBASE
  1

  9
$STYLESHEET
  1

  9
$XEDIT
290
     1
  9
$CEPSNTYPE
380
     0
  9
$PSTYLEMODE
290
     0
  9
$FINGERPRINTGUID
  2
{F9881F54-C046-46FB-904B-FEA15759F441}
  9
$VERSIONGUID
  2
{3F54B655-EC0F-497D-BA23-736E94A04936}
  9
$EXTNAMES
290
     1
  9
$PSVPSCALE
 40
0.0
  9
$OLESTARTUP
290
     0
  9
$SORTENTS
280
   127
  9
$INDEXCTL
280
     0
  9
$HIDETEXT
280
     1
  9
$XCLIPFRAME
290
     0
  9
$HALOGAP
280
     0
  9
$OBSCOLOR
 70
   257
  9
$OBSLTYPE
280
     0
  9
$INTERSECTIONDISPLAY
280
     0
  9
$INTERSECTIONCOLOR
 70
   257
  9
$DIMASSOC
280
     1
  9
$PROJECTNAME
  1

  9
$CAMERADISPLAY
290
     0
  9
$LENSLENGTH
 40
50.0
  9
$CAMERAHEIGHT
 40
0.0
  9
$STEPSPERSEC
 40
2.0
  9
$STEPSIZE
 40
6.0
  9
$3DDWFPREC
 40
2.0
  9
$PSOLWIDTH
 40
0.25
  9
$PSOLHEIGHT
 40
4.0
  9
$LOFTANG1
 40
1.570796326794896
  9
$LOFTANG2
 40
1.570796326794896
  9
$LOFTMAG1
 40
0.0
  9
$LOFTMAG2
 40
0.0
  9
$LOFTPARAM
 70
     7
  9
$LOFTNORMALS
280
     1
  9
$LATITUDE
 40
37.795
  9
$LONGITUDE
 40
-122.394
  9
$NORTHDIRECTION
 40
0.0
  9
$TIMEZONE
 70
 -8000
  9
$LIGHTGLYPHDISPLAY
280
     1
  9
$TILEMODELIGHTSYNCH
280
     1
  9
$CMATERIAL
347
30
  9
$SOLIDHIST
280
     1
  9
$SHOWHIST
280
     1
  9
$DWFFRAME
280
     2
  9
$DGNFRAME
280
     0
  9
$REALWORLDSCALE
290
     1
  9
$INTERFERECOLOR
 62
     1
  9
$INTERFEREOBJVS
345
38
  9
$INTERFEREVPVS
346
39
  9
$CSHADOW
280
     0
  9
$SHADOWPLANELOCATION
 40
0.0
  0
ENDSEC
  0
SECTION
  2
CLASSES
  0
CLASS
  1
ACDBDICTIONARYWDFLT
  2
AcDbDictionaryWithDefault
  3
ObjectDBX Classes
 90
        0
 91
        1
280
     0
281
     0
  0
CLASS
  1
TABLESTYLE
  2
AcDbTableStyle
  3
ObjectDBX Classes
 90
     4095
 91
        1
280
     0
281
     0
  0
CLASS
  1
DICTIONARYVAR
  2
AcDbDictionaryVar
  3
ObjectDBX Classes
 90
        0
 91
        5
280
     0
281
     0
  0
CLASS
  1
SPATIAL_FILTER
  2
AcDbSpatialFilter
  3
ObjectDBX Classes
 90
        0
 91
        0
280
     0
281
     0
  0
CLASS
  1
MATERIAL
  2
AcDbMaterial
  3
ObjectDBX Classes
 90
     1024
 91
        3
280
     0
281
     0
  0
CLASS
  1
VISUALSTYLE
  2
AcDbVisualStyle
  3
ObjectDBX Classes
 90
     4095
 91
       16
280
     0
281
     0
  0
CLASS
  1
SORTENTSTABLE
  2
AcDbSortentsTable
  3
ObjectDBX Classes
 90
        0
 91
        2
280
     0
281
     0
  0
ENDSEC
  0
SECTION
  2
TABLES
  0
TABLE
  2
VPORT
  5
23
102
{ACAD_XDICTIONARY
360
27
102
}
330
0
100
AcDbSymbolTable
 70
     1
  0
VPORT
  5
24
330
23
100
AcDbSymbolTableRecord
100
AcDbViewportTableRecord
  2
*Active
 70
     0
 10
0.0
 20
0.0
 11
1.0
 21
1.0
 12
20711.02032706024
 22
-4398.840558004949
 13
0.0
 23
0.0
 14
0.5
 24
0.5
 15
0.5
 25
0.5
 16
0.0
 26
0.0
 36
1.0
 17
0.0
 27
0.0
 37
0.0
 40
751.0497245561537
 41
2.448275862068965
 42
50.0
 43
0.0
 44
0.0
 50
0.0
 51
0.0
 71
     0
 72
   100
 73
     1
 74
     3
 75
     0
 76
     0
 77
     0
 78
     0
281
     0
 65
     1
110
0.0
120
0.0
130
0.0
111
1.0
121
0.0
131
0.0
112
0.0
122
1.0
132
0.0
 79
     0
146
0.0
348
25
 60
     3
 61
     5
292
     1
282
     1
141
0.0
142
0.0
 63
   250
421
  3355443
  0
ENDTAB
  0
TABLE
  2
LTYPE
  5
1E
330
0
100
AcDbSymbolTable
 70
     1
  0
LTYPE
  5
1F
330
1E
100
AcDbSymbolTableRecord
100
AcDbLinetypeTableRecord
  2
ByBlock
 70
     0
  3

 72
    65
 73
     0
 40
0.0
  0
LTYPE
  5
20
330
1E
100
AcDbSymbolTableRecord
100
AcDbLinetypeTableRecord
  2
ByLayer
 70
     0
  3

 72
    65
 73
     0
 40
0.0
  0
LTYPE
  5
C
330
1E
100
AcDbSymbolTableRecord
100
AcDbLinetypeTableRecord
  2
Continuous
 70
     0
  3
Solid line
 72
    65
 73
     0
 40
0.0
  0
ENDTAB
  0
TABLE
  2
LAYER
  5
15
102
{ACAD_XDICTIONARY
360
16
102
}
330
0
100
AcDbSymbolTable
 70
     2
  0
LAYER
  5
6
330
15
100
AcDbSymbolTableRecord
100
AcDbLayerTableRecord
  2
0
 70
     0
 62
     7
  6
Continuous
370
    -3
390
7
347
A
  0
LAYER
  5
34
330
15
100
AcDbSymbolTableRecord
100
AcDbLayerTableRecord
  2
dims
 70
     0
 62
     7
  6
Continuous
370
     5
390
7
347
A
1001
AcAecLayerStandard
1000

1000

  0
ENDTAB
  0
TABLE
  2
STYLE
  5
1B
330
0
100
AcDbSymbolTable
 70
     1
  0
STYLE
  5
1C
330
1B
100
AcDbSymbolTableRecord
100
AcDbTextStyleTableRecord
  2
Standard
 70
     0
 40
0.0
 41
1.0
 50
0.0
 71
     0
 42
0.2
  3
ARIAL.TTF
  4

1001
ACAD
1000
Arial
1071
       34
  0
ENDTAB
  0
TABLE
  2
VIEW
  5
21
330
0
100
AcDbSymbolTable
 70
     0
  0
ENDTAB
  0
TABLE
  2
UCS
  5
22
330
0
100
AcDbSymbolTable
 70
     0
  0
ENDTAB
  0
TABLE
  2
APPID
  5
28
330
0
100
AcDbSymbolTable
 70
     3
  0
APPID
  5
1A
330
28
100
AcDbSymbolTableRecord
100
AcDbRegAppTableRecord
  2
ACAD
 70
     0
  0
APPID
  5
10
330
28
100
AcDbSymbolTableRecord
100
AcDbRegAppTableRecord
  2
ACAD_PSEXT
 70
     0
  0
APPID
  5
35
330
28
100
AcDbSymbolTableRecord
100
AcDbRegAppTableRecord
  2
AcAecLayerStandard
 70
     0
  0
ENDTAB
  0
TABLE
  2
DIMSTYLE
  5
29
330
0
100
AcDbSymbolTable
 70
     2
100
AcDbDimStyleTable
 71
     2
340
2A
340
2B
  0
DIMSTYLE
105
2A
330
29
100
AcDbSymbolTableRecord
100
AcDbDimStyleTableRecord
  2
Standard
 70
     0
  3
mm
 41
50.0
 73
     0
 74
     0
140
65.0
271
     0
272
     0
340
1C
  0
DIMSTYLE
105
2B
330
29
100
AcDbSymbolTableRecord
100
AcDbDimStyleTableRecord
  2
Copy of Standard
 70
     0
  3
mm
 41
50.0
 73
     0
 74
     0
 77
     2
140
65.0
147
20.0
271
     0
272
     0
340
1C
  0
ENDTAB
  0
TABLE
  2
BLOCK_RECORD
  5
1
330
0
100
AcDbSymbolTable
 70
     1
  0
BLOCK_RECORD
  5
2
102
{ACAD_XDICTIONARY
360
3
102
}
330
1
100
AcDbSymbolTableRecord
100
AcDbBlockTableRecord
  2
*Model_Space
340
E
 70
     0
280
     1
281
     0
  0
BLOCK_RECORD
  5
11
330
1
100
AcDbSymbolTableRecord
100
AcDbBlockTableRecord
  2
*Paper_Space
340
14
 70
     0
280
     1
281
     0
  0
BLOCK_RECORD
  5
3B
102
{ACAD_XDICTIONARY
360
3C
102
}
330
1
100
AcDbSymbolTableRecord
100
AcDbBlockTableRecord
  2
A$C223D6CCF
340
0
 70
     4
280
     1
281
     0
  0
ENDTAB
  0
ENDSEC
  0
SECTION
  2
BLOCKS
  0
BLOCK
  5
5
330
2
100
AcDbEntity
  8
0
100
AcDbBlockBegin
  2
*Model_Space
 70
     0
 10
0.0
 20
0.0
 30
0.0
  3
*Model_Space
  1

  0
ENDBLK
  5
D
330
2
100
AcDbEntity
  8
0
100
AcDbBlockEnd
  0
BLOCK
  5
12
330
11
100
AcDbEntity
 67
     1
  8
0
100
AcDbBlockBegin
  2
*Paper_Space
 70
     0
 10
0.0
 20
0.0
 30
0.0
  3
*Paper_Space
  1

  0
ENDBLK
  5
13
330
11
100
AcDbEntity
 67
     1
  8
0
100
AcDbBlockEnd
  0
BLOCK
  5
3E
330
3B
100
AcDbEntity
  8
0
 48
25.4
370
     9
100
AcDbBlockBegin
  2
A$C223D6CCF
 70
     0
 10
0.0
 20
0.0
 30
0.0
  3
A$C223D6CCF
  1

  0
LINE
  5
3F
330
3B
100
AcDbEntity
  8
0
  6
Continuous
 62
     7
 48
25.4
100
AcDbLine
 10
1396.721821293711
 20
387.9166029671069
 30
0.0
 11
1396.721821293711
 21
498.1277197591062
 31
0.0
  0
ELLIPSE
  5
40
330
3B
100
AcDbEntity
  8
0
  6
Continuous
 62
     7
 48
25.4
100
AcDbEllipse
 10
1346.72540593371
 20
498.0671532091055
 30
0.0
 11
18.52185746727226
 21
-48.8885558937701
 31
0.0
210
0.0
220
0.0
230
-0.9999999999999998
 40
0.9505610510608139
 41
3.52085988896446
 42
5.056892615321702
  0
ELLIPSE
  5
41
330
3B
100
AcDbEntity
  8
0
  6
Continuous
 62
     7
 48
25.4
100
AcDbEllipse
 10
1346.72540593371
 20
251.9328525751062
 30
0.0
 11
-18.52185746481152
 21
-48.8885558920673
 31
0.0
210
0.0
220
0.0
230
-0.9999999999999998
 40
0.9505610511125107
 41
4.367885345461661
 42
5.903918071857335
  0
LINE
  5
42
330
3B
100
AcDbEntity
  8
0
  6
Continuous
 62
     7
 48
25.4
100
AcDbLine
 10
1396.721821293711
 20
251.8722860271064
 30
0.0
 11
1396.721821293711
 21
362.0834028171066
 31
0.0
  0
LINE
  5
43
330
3B
100
AcDbEntity
  8
0
  6
Continuous
 62
     7
 48
25.4
100
AcDbLine
 10
14.99997770681147
 20
10.00000289310628
 30
0.0
 11
14.99997770681147
 21
740.000002893108
 31
0.0
  0
LINE
  5
44
330
3B
100
AcDbEntity
  8
0
  6
Continuous
 62
     7
 48
25.4
100
AcDbLine
 10
1704.999977706811
 20
0.0000028931062843
 30
0.0
 11
24.99997770681148
 21
0.0000028931062843
 31
0.0
  0
LINE
  5
45
330
3B
100
AcDbEntity
  8
0
  6
Continuous
 62
     7
 48
25.4
100
AcDbLine
 10
1714.999977706811
 20
740.000002893108
 30
0.0
 11
1714.999977706811
 21
10.00000289310628
 31
0.0
  0
LINE
  5
46
330
3B
100
AcDbEntity
  8
0
  6
Continuous
 62
     7
 48
25.4
100
AcDbLine
 10
24.99997770681148
 20
750.0000028931081
 30
0.0
 11
161.9999777068114
 21
750.0000028931081
 31
0.0
  0
LINE
  5
47
330
3B
100
AcDbEntity
  8
0
  6
Continuous
 62
     7
 48
25.4
100
AcDbLine
 10
597.9999777068078
 20
750.0000028931081
 30
0.0
 11
1704.999977706811
 21
750.0000028931081
 31
0.0
  0
ARC
  5
48
330
3B
100
AcDbEntity
  8
0
  6
Continuous
 62
     7
 48
25.4
100
AcDbCircle
 10
24.99997770681148
 20
10.00000289310628
 30
0.0
 40
10.00000000000001
100
AcDbArc
 50
180.0
 51
270.0
  0
ARC
  5
49
330
3B
100
AcDbEntity
  8
0
  6
Continuous
 62
     7
 48
25.4
100
AcDbCircle
 10
1704.999977706811
 20
10.00000289310628
 30
0.0
 40
10.00000000000001
100
AcDbArc
 50
270.0
 51
0.0
  0
ARC
  5
4A
330
3B
100
AcDbEntity
  8
0
  6
Continuous
 62
     7
 48
25.4
100
AcDbCircle
 10
1704.999977706811
 20
740.000002893108
 30
0.0
 40
9.999999999999953
100
AcDbArc
 50
0.0
 51
90.0
  0
ARC
  5
4B
330
3B
100
AcDbEntity
  8
0
  6
Continuous
 62
     7
 48
25.4
100
AcDbCircle
 10
1376.721821293711
 20
375.0000028931063
 30
0.0
 40
19.99999999999948
100
AcDbArc
 50
319.7720651418712
 51
40.22793485812885
  0
ARC
  5
4C
330
3B
100
AcDbEntity
  8
0
  6
Continuous
 62
     7
 48
25.4
100
AcDbCircle
 10
1376.721821293711
 20
375.0000028931063
 30
0.0
 40
19.99999999999997
100
AcDbArc
 50
40.22793485812885
 51
319.7720651418712
  0
LINE
  5
4D
330
3B
100
AcDbEntity
  8
0
  6
Continuous
 62
     7
 48
25.4
100
AcDbLine
 10
597.9999777068078
 20
690.000002893108
 30
0.0
 11
1482.867159536807
 21
690.000002893108
 31
0.0
  0
LINE
  5
4E
330
3B
100
AcDbEntity
  8
0
  6
Continuous
 62
     7
 48
25.4
100
AcDbLine
 10
1662.867159536807
 20
504.0078026891041
 30
0.0
 11
1662.867159536807
 21
245.9922030971065
 31
0.0
  0
ARC
  5
4F
330
3B
100
AcDbEntity
  8
0
  6
Continuous
 62
     7
 48
25.4
100
AcDbCircle
 10
1472.216863243175
 20
499.5963055209921
 30
0.0
 40
190.7013287423932
100
AcDbArc
 50
1.325542510317539
 51
86.79847702247363
  0
ARC
  5
50
330
3B
100
AcDbEntity
  8
0
  6
Continuous
 62
     7
 48
25.4
100
AcDbCircle
 10
1472.216863243175
 20
250.4037002652185
 30
0.0
 40
190.7013287423921
100
AcDbArc
 50
273.2015229775263
 51
358.6744574896824
  0
LINE
  5
51
330
3B
100
AcDbEntity
  8
0
  6
Continuous
 62
     7
 48
25.4
100
AcDbLine
 10
1482.867159536807
 20
60.00000289310627
 30
0.0
 11
339.4115204388036
 21
60.00000289310627
 31
0.0
  0
ARC
  5
52
330
3B
100
AcDbEntity
  8
0
 62
     7
 48
25.4
100
AcDbCircle
 10
339.4115204388036
 20
350.0000028931081
 30
0.0
 40
290.0
100
AcDbArc
 50
180.0
 51
270.0
  0
SPLINE
  5
53
330
3B
100
AcDbEntity
  8
0
  6
Continuous
 62
     7
 48
25.4
100
AcDbSpline
210
0.0
220
0.0
230
1.0
 70
     8
 71
     3
 72
    34
 73
    30
 74
     0
 42
0.0000000001
 43
0.0000000001
 40
0.0
 40
0.0
 40
0.0
 40
0.0
 40
0.0020909496470034
 40
0.0039749363944989
 40
0.0436005352750647
 40
0.0935022080132522
 40
0.1520965160268936
 40
0.2198069568517661
 40
0.2437018730157693
 40
0.2501872305532252
 40
0.26349440165835
 40
0.3173160880552661
 40
0.3850151496050754
 40
0.4387057444450777
 40
0.499998985532104
 40
0.5630620247210219
 40
0.6238666288611327
 40
0.7023058974594436
 40
0.7299052223432402
 40
0.7498097072177284
 40
0.7539602154611238
 40
0.7577957129265535
 40
0.7980315291800784
 40
0.847817096290518
 40
0.9065651455701363
 40
0.9748534642873172
 40
0.9905570620986679
 40
0.9967328966428079
 40
1.0
 40
1.0
 40
1.0
 40
1.0
 10
161.9999777061093
 20
727.7167780527978
 30
0.0
 10
162.3015329081099
 20
727.7175946402276
 30
0.0
 10
162.8747952767698
 20
727.7191469889912
 30
0.0
 10
169.1631504856523
 20
727.7356018343453
 30
0.0
 10
182.3299797642576
 20
727.809452686839
 30
0.0
 10
203.7023924945024
 20
727.8297791669337
 30
0.0
 10
229.1942083317445
 20
727.6251208618796
 30
0.0
 10
251.0267618603247
 20
727.0476988903665
 30
0.0
 10
265.3169089644689
 20
726.3804199933056
 30
0.0
 10
271.6817480532991
 20
726.0514457262088
 30
0.0
 10
282.410527141441
 20
725.438089600664
 30
0.0
 10
302.067432222495
 20
724.0644837879989
 30
0.0
 10
327.5988240345396
 20
722.0334495909046
 30
0.0
 10
354.2351043002127
 20
720.3329361539872
 30
0.0
 10
380.2586617484812
 20
719.5555864323267
 30
0.0
 10
407.3219621664828
 20
720.3871549954347
 30
0.0
 10
436.8127365703693
 20
722.3542029538768
 30
0.0
 10
461.1295724860283
 20
724.3151185082097
 30
0.0
 10
479.4878796255614
 20
725.5393206807694
 30
0.0
 10
487.0166138738896
 20
725.9812777860314
 30
0.0
 10
491.0803199737309
 20
726.1945797244461
 30
0.0
 10
498.1052001484276
 20
726.5490991166642
 30
0.0
 10
511.7764992085285
 20
727.1320158037288
 30
0.0
 10
533.3822414605129
 20
727.644793993275
 30
0.0
 10
558.9657921590405
 20
727.8535730858948
 30
0.0
 10
579.5481900846935
 20
727.7938670829954
 30
0.0
 10
592.5428330268841
 20
727.7373752838157
 30
0.0
 10
596.1667384795763
 20
727.7212837440946
 30
0.0
 10
597.5287454016908
 20
727.717936236284
 30
0.0
 10
597.999977706113
 20
727.7167780528762
 30
0.0
  0
LINE
  5
54
330
3B
100
AcDbEntity
  8
0
  6
Continuous
 62
     7
 48
25.4
100
AcDbLine
 10
161.9999777068114
 20
605.5610998331085
 30
0.0
 11
597.9999777068078
 21
605.5610998331085
 31
0.0
  0
LINE
  5
55
330
3B
100
AcDbEntity
  8
0
  6
Continuous
 62
     7
 48
25.4
100
AcDbLine
 10
161.9999777068114
 20
727.7167780531073
 30
0.0
 11
161.9999777068114
 21
605.5610998331085
 31
0.0
  0
LINE
  5
56
330
3B
100
AcDbEntity
  8
0
  6
Continuous
 62
     7
 48
25.4
100
AcDbLine
 10
161.9999777068114
 20
899.9299520031076
 30
0.0
 11
161.9999777068114
 21
727.7167780531073
 31
0.0
  0
LINE
  5
57
330
3B
100
AcDbEntity
  8
0
  6
Continuous
 62
     7
 48
25.4
100
AcDbLine
 10
161.9999777068114
 20
964.2338219291072
 30
0.0
 11
161.9999777068114
 21
899.9299520031076
 31
0.0
  0
LINE
  5
58
330
3B
100
AcDbEntity
  8
0
  6
Continuous
 62
     7
 48
25.4
100
AcDbLine
 10
161.9999777068114
 20
964.2338219291072
 30
0.0
 11
161.9999777068114
 21
1255.683353341108
 31
0.0
  0
ARC
  5
59
330
3B
100
AcDbEntity
  8
0
  6
Continuous
 62
     7
 48
25.4
100
AcDbCircle
 10
540.4153206250667
 20
1250.390196644672
 30
0.0
 40
57.82741771024149
100
AcDbArc
 50
5.251845067515722
 51
92.95333846813816
  0
LINE
  5
5A
330
3B
100
AcDbEntity
  8
0
  6
Continuous
 62
     7
 48
25.4
100
AcDbLine
 10
222.5640570376709
 20
1308.140809473418
 30
0.0
 11
537.4358983748098
 21
1308.140809475108
 31
0.0
  0
SPLINE
  5
5B
330
3B
100
AcDbEntity
  8
0
  6
Continuous
 62
     7
 48
25.4
100
AcDbSpline
210
0.0
220
0.0
230
1.0
 70
     8
 71
     3
 72
    71
 73
    67
 74
     0
 42
0.0000000001
 43
0.0000000001
 40
0.0
 40
0.0
 40
0.0
 40
0.0
 40
0.0662673465498511
 40
0.1316255098764072
 40
0.1598430608489952
 40
0.1920164059091495
 40
0.2081366782312922
 40
0.2217281597174386
 40
0.2328237160495766
 40
0.2414435495566089
 40
0.2475978026924962
 40
0.2512901140537449
 40
0.2525210402789099
 40
0.2532487708121601
 40
0.2552004283115442
 40
0.2583772372663714
 40
0.2627827419050259
 40
0.2684220408039468
 40
0.2753014202375074
 40
0.2834286336628614
 40
0.2928123662364387
 40
0.3034611965128918
 40
0.3153820027734418
 40
0.3285778508457176
 40
0.3430455231383676
 40
0.3587730078781439
 40
0.375737473406832
 40
0.3978908319426388
 40
0.4149812999073045
 40
0.442975550750498
 40
0.4734410165609075
 40
0.5044384733785692
 40
0.5354669367491473
 40
0.569996656472113
 40
0.5948515860000211
 40
0.6075360525180922
 40
0.6242564691580226
 40
0.639167470266469
 40
0.6531340342258977
 40
0.6661394324003353
 40
0.6781735094426558
 40
0.6892317780471559
 40
0.6993141854014229
 40
0.7084237985493476
 40
0.7165655753521292
 40
0.7237453240332346
 40
0.7299689030870981
 40
0.7352416726179636
 40
0.7395681774203288
 40
0.7429520282035602
 40
0.7453965839037111
 40
0.7469033790145369
 40
0.7474733179395195
 40
0.7484157686674994
 40
0.7512427235737187
 40
0.7559543386107434
 40
0.762552125381118
 40
0.7710406049099939
 40
0.7814291886335603
 40
0.793733888162114
 40
0.8079784027769896
 40
0.8401517481909605
 40
0.8683692993123839
 40
0.9118120722825075
 40
0.9557556588804445
 40
1.0
 40
1.0
 40
1.0
 40
1.0
 10
161.9999777061093
 20
964.2338219283598
 30
0.0
 10
171.3173926561867
 20
962.6399753048358
 30
0.0
 10
189.8243882940987
 20
959.4741495187076
 30
0.0
 10
212.541576543179
 20
955.4070541673697
 30
0.0
 10
230.6448293536705
 20
951.8127318525543
 30
0.0
 10
241.7495801448859
 20
949.4034517491996
 30
0.0
 10
250.7774669798018
 20
947.2912028004316
 30
0.0
 10
256.7452346154605
 20
945.8280741768545
 30
0.0
 10
261.621591339801
 20
944.5807918545037
 30
0.0
 10
265.411786716315
 20
943.5849475112476
 30
0.0
 10
268.1138752355364
 20
942.8433501896691
 30
0.0
 10
269.7396926320871
 20
942.4142115239652
 30
0.0
 10
270.5620133012817
 20
942.1643791820374
 30
0.0
 10
271.1449845786119
 20
942.0502336165975
 30
0.0
 10
272.0015725612793
 20
941.8065940732097
 30
0.0
 10
273.4013005498127
 20
941.4332717519439
 30
0.0
 10
275.335899668029
 20
940.8856066157063
 30
0.0
 10
277.8105223246312
 20
940.1764349978352
 30
0.0
 10
280.8246095194371
 20
939.2921258895517
 30
0.0
 10
284.3801106987885
 20
938.2305225396544
 30
0.0
 10
288.4782807034462
 20
936.9876592462519
 30
0.0
 10
293.1208192412159
 20
935.5644052438259
 30
0.0
 10
298.3094406429118
 20
933.966263604087
 30
0.0
 10
304.0460062354104
 20
932.2057988489399
 30
0.0
 10
310.3324548090641
 20
930.3043212239858
 30
0.0
 10
317.1710301444873
 20
928.2945262782163
 30
0.0
 10
325.1431396069311
 20
926.0584495927307
 30
0.0
 10
333.3546251008483
 20
923.9384805244275
 30
0.0
 10
343.2466747654836
 20
921.6721543131573
 30
0.0
 10
354.472260535269
 20
919.5535106500679
 30
0.0
 10
367.9468728294196
 20
917.8784029274043
 30
0.0
 10
382.0382166167365
 20
917.3606271214296
 30
0.0
 10
396.7129059434592
 20
918.3104497743318
 30
0.0
 10
410.265054822288
 20
920.3553954414214
 30
0.0
 10
420.9172359725344
 20
922.5950241572476
 30
0.0
 10
428.8773743835372
 20
924.5111208046914
 30
0.0
 10
435.3467037118861
 20
926.2016745200458
 30
0.0
 10
441.9764083383125
 20
928.0534755745673
 30
0.0
 10
448.0520154548321
 20
929.8255323405431
 30
0.0
 10
453.7041103747468
 20
931.5222538433614
 30
0.0
 10
458.9342814108713
 20
933.1191284923855
 30
0.0
 10
463.743937087107
 20
934.5988635862598
 30
0.0
 10
468.1344322397198
 20
935.9499275265047
 30
0.0
 10
472.1070469275692
 20
937.1655690610682
 30
0.0
 10
475.6629992939233
 20
938.2427552629335
 30
0.0
 10
478.803397356507
 20
939.1814326664141
 30
0.0
 10
481.529337165899
 20
939.9831921481196
 30
0.0
 10
483.8415524641423
 20
940.6520783317896
 30
0.0
 10
485.7413731158958
 20
941.1894959195056
 30
0.0
 10
487.2281188644191
 20
941.6060517246172
 30
0.0
 10
488.3058266845036
 20
941.8894746278695
 30
0.0
 10
488.9674161066976
 20
942.0769182542356
 30
0.0
 10
489.4184595289225
 20
942.160397747984
 30
0.0
 10
490.049538662417
 20
942.3541958739136
 30
0.0
 10
491.2945055951386
 20
942.6819920981156
 30
0.0
 10
493.3626013084175
 20
943.2541076982891
 30
0.0
 10
496.263171790848
 20
944.0251598198877
 30
0.0
 10
499.9938354287587
 20
944.9985587611696
 30
0.0
 10
504.5581885590836
 20
946.1504224792475
 30
0.0
 10
509.9578438126371
 20
947.464427053184
 30
0.0
 10
518.5225685542682
 20
949.462393499491
 30
0.0
 10
529.3552379839057
 20
951.8127090168878
 30
0.0
 10
544.3029778768106
 20
954.7808647900442
 30
0.0
 10
560.7853999475008
 20
957.8056284102792
 30
0.0
 10
579.3761992668987
 20
961.0425372045661
 30
0.0
 10
591.7779533200955
 20
963.1676445444838
 30
0.0
 10
597.999977706113
 20
964.233821928356
 30
0.0
  0
LINE
  5
5C
330
3B
100
AcDbEntity
  8
0
  6
Continuous
 62
     7
 48
25.4
100
AcDbLine
 10
597.9999777068078
 20
899.9299520031076
 30
0.0
 11
597.9999777068078
 21
727.7167780531073
 31
0.0
  0
LINE
  5
5D
330
3B
100
AcDbEntity
  8
0
  6
Continuous
 62
     7
 48
25.4
100
AcDbLine
 10
597.9999777068078
 20
964.2338219291072
 30
0.0
 11
597.9999777068078
 21
899.9299520031076
 31
0.0
  0
LINE
  5
5E
330
3B
100
AcDbEntity
  8
0
  6
Continuous
 62
     7
 48
25.4
100
AcDbLine
 10
597.9999777068078
 20
964.2338219291072
 30
0.0
 11
597.9999777068078
 21
1255.683353341108
 31
0.0
  0
LINE
  5
5F
330
3B
100
AcDbEntity
  8
0
  6
Continuous
 62
     7
 48
25.4
100
AcDbLine
 10
597.9999777068078
 20
727.7167780531073
 30
0.0
 11
597.9999777068078
 21
605.5610998331085
 31
0.0
  0
LINE
  5
60
330
3B
100
AcDbEntity
  8
0
  6
Continuous
 62
     7
 48
25.4
100
AcDbLine
 10
633.9505770988107
 20
771.0610998331067
 30
0.0
 11
597.9999777068078
 21
771.0610998331067
 31
0.0
  0
LINE
  5
61
330
3B
100
AcDbEntity
  8
0
  6
Continuous
 62
     7
 48
25.4
100
AcDbLine
 10
161.9999777068114
 20
771.0610998331067
 30
0.0
 11
128.9505770988107
 21
771.0610998331067
 31
0.0
  0
LINE
  5
62
330
3B
100
AcDbEntity
  8
0
  6
Continuous
 62
     7
 48
25.4
100
AcDbLine
 10
153.9505770988107
 20
796.0610998331067
 30
0.0
 11
161.9999777068114
 21
796.0610998331067
 31
0.0
  0
LINE
  5
63
330
3B
100
AcDbEntity
  8
0
  6
Continuous
 62
     7
 48
25.4
100
AcDbLine
 10
597.9999777068078
 20
796.0610998331067
 30
0.0
 11
608.9505770988107
 21
796.0610998331067
 31
0.0
  0
LINE
  5
64
330
3B
100
AcDbEntity
  8
0
  6
Continuous
 62
     7
 48
25.4
100
AcDbLine
 10
128.9505770988107
 20
771.0610998331067
 30
0.0
 11
128.9505770988107
 21
1121.061099833107
 31
0.0
  0
LINE
  5
65
330
3B
100
AcDbEntity
  8
0
  6
Continuous
 62
     7
 48
25.4
100
AcDbLine
 10
153.9505770988107
 20
1121.061099833107
 30
0.0
 11
153.9505770988107
 21
796.0610998331067
 31
0.0
  0
ARC
  5
66
330
3B
100
AcDbEntity
  8
0
  6
Continuous
 62
     7
 48
25.4
100
AcDbCircle
 10
141.4505770988107
 20
1121.061099833107
 30
0.0
 40
12.50000000000001
100
AcDbArc
 50
90.0
 51
180.0
  0
ARC
  5
67
330
3B
100
AcDbEntity
  8
0
  6
Continuous
 62
     7
 48
25.4
100
AcDbCircle
 10
141.4505770988107
 20
1121.061099833107
 30
0.0
 40
12.50000000000007
100
AcDbArc
 50
0.0
 51
90.0
  0
ARC
  5
68
330
3B
100
AcDbEntity
  8
0
  6
Continuous
 62
     7
 48
25.4
100
AcDbCircle
 10
621.4505770988107
 20
1121.061099833107
 30
0.0
 40
12.50000000000007
100
AcDbArc
 50
90.0
 51
180.0
  0
ARC
  5
69
330
3B
100
AcDbEntity
  8
0
  6
Continuous
 62
     7
 48
25.4
100
AcDbCircle
 10
621.4505770988107
 20
1121.061099833107
 30
0.0
 40
12.50000000000007
100
AcDbArc
 50
0.0
 51
90.0
  0
LINE
  5
6A
330
3B
100
AcDbEntity
  8
0
  6
Continuous
 62
     7
 48
25.4
100
AcDbLine
 10
633.9505770988107
 20
1121.061099833107
 30
0.0
 11
633.9505770988107
 21
771.0610998331067
 31
0.0
  0
LINE
  5
6B
330
3B
100
AcDbEntity
  8
0
  6
Continuous
 62
     7
 48
25.4
100
AcDbLine
 10
608.9505770988107
 20
796.0610998331067
 30
0.0
 11
608.9505770988107
 21
1121.061099833107
 31
0.0
  0
LINE
  5
6C
330
3B
100
AcDbEntity
  8
0
  6
Continuous
 62
     7
 48
25.4
100
AcDbLine
 10
14.99997770681147
 20
746.0000028931081
 30
0.0
 11
14.99997770681147
 21
740.000002893108
 31
0.0
  0
ARC
  5
6D
330
3B
100
AcDbEntity
  8
0
  6
Continuous
 62
     7
 48
25.4
100
AcDbCircle
 10
18.99997770681148
 20
746.0000028931081
 30
0.0
 40
4.0
100
AcDbArc
 50
90.0
 51
180.0
  0
LINE
  5
6E
330
3B
100
AcDbEntity
  8
0
  6
Continuous
 62
     7
 48
25.4
100
AcDbLine
 10
1618.24880102881
 20
765.000002893108
 30
0.0
 11
597.9999777068078
 21
765.000002893108
 31
0.0
  0
LINE
  5
6F
330
3B
100
AcDbEntity
  8
0
  6
Continuous
 62
     7
 48
25.4
100
AcDbLine
 10
161.9999777068114
 20
765.000002893108
 30
0.0
 11
111.7511543828113
 21
765.000002893108
 31
0.0
  0
LINE
  5
70
330
3B
100
AcDbEntity
  8
0
  6
Continuous
 62
     7
 48
25.4
100
AcDbLine
 10
24.99997770681148
 20
750.0000028931081
 30
0.0
 11
18.99997770681148
 21
750.0000028931081
 31
0.0
  0
LINE
  5
71
330
3B
100
AcDbEntity
  8
0
  6
Continuous
 62
     7
 48
25.4
100
AcDbLine
 10
1704.999977706811
 20
750.0000028931081
 30
0.0
 11
1621.724507706811
 21
764.6956740691075
 31
0.0
  0
ARC
  5
72
330
3B
100
AcDbEntity
  8
0
  6
Continuous
 62
     7
 48
25.4
100
AcDbCircle
 10
1618.24880102881
 20
745.000002893108
 30
0.0
 40
20.0
100
AcDbArc
 50
79.99202019865828
 51
90.0
  0
ARC
  5
73
330
3B
100
AcDbEntity
  8
0
  6
Continuous
 62
     7
 48
25.4
100
AcDbCircle
 10
111.7511543828113
 20
745.000002893108
 30
0.0
 40
20.0
100
AcDbArc
 50
90.0
 51
100.0079798013417
  0
ARC
  5
74
330
3B
100
AcDbEntity
  8
0
  6
Continuous
 62
     7
 48
25.4
100
AcDbCircle
 10
23.24880102881071
 20
770.000002893108
 30
0.0
 40
19.99999999999997
100
AcDbArc
 50
270.0
 51
277.6960517219747
  0
LINE
  5
75
330
3B
100
AcDbEntity
  8
0
  6
Continuous
 62
     7
 48
25.4
100
AcDbLine
 10
108.275447704811
 20
764.6956740691075
 30
0.0
 11
25.9271589488344
 21
750.1801542849008
 31
0.0
  0
ELLIPSE
  5
76
330
3B
100
AcDbEntity
  8
0
  6
Continuous
 62
     7
 48
25.4
100
AcDbEllipse
 10
34.63967492281154
 20
696.502091027107
 30
0.0
 11
19.81984860841081
 21
-2.678357920027219
 31
0.0
210
0.0
220
0.0
230
-0.9999999999999998
 40
0.7039005128
 41
2.951919959409194
 42
3.141592653589792
  0
ELLIPSE
  5
77
330
3B
100
AcDbEntity
  8
0
  6
Continuous
 62
     7
 48
25.4
100
AcDbEllipse
 10
34.31486518280872
 20
694.4872654651081
 30
0.0
 11
19.65744373867467
 21
-3.685770701005603
 31
0.0
210
0.0
220
0.0
230
-1.0
 40
0.8064254259999998
 41
2.913144008768758
 42
3.141592653589796
  0
ELLIPSE
  5
78
330
3B
100
AcDbEntity
  8
0
  6
Continuous
 62
     7
 48
25.4
100
AcDbEllipse
 10
34.63967492281154
 20
23.49791475910752
 30
0.0
 11
-19.81984860831934
 21
-2.678357920026906
 31
0.0
210
0.0
220
0.0
230
-1.0
 40
0.7039005128
 41
0.0
 42
0.1896726941814828
  0
ELLIPSE
  5
79
330
3B
100
AcDbEntity
  8
0
  6
Continuous
 62
     7
 48
25.4
100
AcDbEllipse
 10
34.31486518280872
 20
25.51274032110814
 30
0.0
 11
-19.65744373872736
 21
-3.685770701003175
 31
0.0
210
0.0
220
0.0
230
-1.0
 40
0.8064254259999998
 41
0.0
 42
0.2284486448203008
  0
ELLIPSE
  5
7A
330
3B
100
AcDbEntity
  8
0
  6
Continuous
 62
     7
 48
25.4
100
AcDbEllipse
 10
-5.00002229518941
 20
18.14119891910741
 30
0.0
 11
0.0000000000164001
 21
40.00000000033021
 31
0.0
210
0.0
220
0.0
230
-1.0
 40
0.5
 41
1.436474884842096
 42
1.570796326793953
  0
ARC
  5
7B
330
3B
100
AcDbEntity
  8
0
  6
Continuous
 62
     7
 48
25.4
100
AcDbCircle
 10
-5.00002229318852
 20
18.14119891910741
 30
0.0
 40
19.99999999999997
100
AcDbArc
 50
0.0
 51
7.696051721960742
  0
ARC
  5
7C
330
3B
100
AcDbEntity
  8
0
  6
Continuous
 62
     7
 48
25.4
100
AcDbCircle
 10
-24.81987090118855
 20
18.14119891910741
 30
0.0
 40
39.99999999998335
100
AcDbArc
 50
7.696051721960742
 51
10.61965527618074
  0
LINE
  5
7D
330
3B
100
AcDbEntity
  8
0
  6
Continuous
 62
     7
 48
25.4
100
AcDbLine
 10
0.3425339668101515
 20
98.17303616510617
 30
0.0
 11
14.65742144480828
 21
21.82696961910733
 31
0.0
  0
ARC
  5
7E
330
3B
100
AcDbEntity
  8
0
  6
Continuous
 62
     7
 48
25.4
100
AcDbCircle
 10
19.99997770681147
 20
101.8588068671069
 30
0.0
 40
20.00000000000002
100
AcDbArc
 50
180.0
 51
190.6196552761807
  0
LINE
  5
7F
330
3B
100
AcDbEntity
  8
0
  6
Continuous
 62
     7
 48
25.4
100
AcDbLine
 10
-0.0000222931885219
 20
618.1411989191074
 30
0.0
 11
-0.0000222931885219
 21
101.8588068671069
 31
0.0
  0
LINE
  5
80
330
3B
100
AcDbEntity
  8
0
  6
Continuous
 62
     7
 48
25.4
100
AcDbLine
 10
14.81982631481151
 20
696.502091027107
 30
0.0
 11
14.81982631481151
 21
23.49791475910752
 31
0.0
  0
ELLIPSE
  5
81
330
3B
100
AcDbEntity
  8
0
  6
Continuous
 62
     7
 48
25.4
100
AcDbEllipse
 10
-5.00002229318852
 20
701.8588068671069
 30
0.0
 11
-0.0000000000520591
 21
-39.99999999938192
 31
0.0
210
0.0
220
0.0
230
-1.0
 40
0.5
 41
4.712388980382105
 42
4.846710422337157
  0
ARC
  5
82
330
3B
100
AcDbEntity
  8
0
  6
Continuous
 62
     7
 48
25.4
100
AcDbCircle
 10
-5.00002229318852
 20
701.8588068671069
 30
0.0
 40
19.9999999999998
100
AcDbArc
 50
352.3039482780394
 51
0.0
  0
ARC
  5
83
330
3B
100
AcDbEntity
  8
0
  6
Continuous
 62
     7
 48
25.4
100
AcDbCircle
 10
-24.81987090118855
 20
701.8588068671069
 30
0.0
 40
40.00000000000044
100
AcDbArc
 50
349.3803447238193
 51
352.3039482780394
  0
LINE
  5
84
330
3B
100
AcDbEntity
  8
0
  6
Continuous
 62
     7
 48
25.4
100
AcDbLine
 10
14.65742144480828
 20
698.173036165108
 30
0.0
 11
0.3425339668101515
 21
621.8269696191073
 31
0.0
  0
ARC
  5
85
330
3B
100
AcDbEntity
  8
0
  6
Continuous
 62
     7
 48
25.4
100
AcDbCircle
 10
19.99997770681147
 20
618.1411989191074
 30
0.0
 40
20.0
100
AcDbArc
 50
169.3803447238192
 51
180.0
  0
LINE
  5
86
330
3B
100
AcDbEntity
  8
0
  6
Continuous
 62
     7
 48
25.4
100
AcDbLine
 10
125.6048286208097
 20
668.0000028931081
 30
0.0
 11
161.9999777068114
 21
668.0000028931081
 31
0.0
  0
CIRCLE
  5
87
330
3B
100
AcDbEntity
  8
0
  6
Continuous
 62
     7
 48
25.4
100
AcDbCircle
 10
94.99997770681149
 20
653.000002893108
 30
0.0
 40
29.0
  0
CIRCLE
  5
88
330
3B
100
AcDbEntity
  8
0
  6
Continuous
 62
     7
 48
25.4
100
AcDbCircle
 10
94.99997770681149
 20
653.000002893108
 30
0.0
 40
34.0
  0
LINE
  5
89
330
3B
100
AcDbEntity
  8
0
  6
Continuous
 62
     7
 48
25.4
100
AcDbLine
 10
161.9999777068114
 20
638.0000028931081
 30
0.0
 11
125.5823226068096
 21
638.0000028931081
 31
0.0
  0
ARC
  5
8A
330
3B
100
AcDbEntity
  8
0
  6
Continuous
 62
     7
 48
25.4
100
AcDbCircle
 10
94.99997770681149
 20
653.000002893108
 30
0.0
 40
56.0
100
AcDbArc
 50
15.53679406826835
 51
344.4632059317316
  0
ARC
  5
8B
330
3B
100
AcDbEntity
  8
0
  6
Continuous
 62
     7
 48
25.4
100
AcDbCircle
 10
94.99997770681149
 20
653.000002893108
 30
0.0
 40
35.94840344592762
100
AcDbArc
 50
24.66201699974684
 51
335.3379830002532
  0
LINE
  5
8C
330
3B
100
AcDbEntity
  8
0
  6
Continuous
 62
     7
 48
25.4
100
AcDbLine
 10
565.2392532208141
 20
1332.915464749108
 30
0.0
 11
516.0706989249447
 21
1719.436641086479
 31
0.0
  0
LINE
  5
8D
330
3B
100
AcDbEntity
  8
0
  6
Continuous
 62
     7
 48
25.4
100
AcDbLine
 10
491.4675234888127
 20
1740.000002893105
 30
0.0
 11
273.2575799388105
 21
1740.000002893105
 31
0.0
  0
ARC
  5
8E
330
3B
100
AcDbEntity
  8
0
  6
Continuous
 62
     7
 48
25.4
100
AcDbCircle
 10
491.4675234888127
 20
1715.000002893106
 30
0.0
 40
24.9999999999995
100
AcDbArc
 50
10.22216863359072
 51
90.0
  0
ARC
  5
8F
330
3B
100
AcDbEntity
  8
0
  6
Continuous
 62
     7
 48
25.4
100
AcDbCircle
 10
273.2575799388105
 20
1715.000002893106
 30
0.0
 40
24.9999999999997
100
AcDbArc
 50
90.0
 51
169.7778313664093
  0
LINE
  5
90
330
3B
100
AcDbEntity
  8
0
  6
Continuous
 62
     7
 48
25.4
100
AcDbLine
 10
374.8625517129948
 20
1308.140809470914
 30
0.0
 11
374.8625517148138
 21
1321.140809471108
 31
0.0
  0
LINE
  5
91
330
3B
100
AcDbEntity
  8
0
  6
Continuous
 62
     7
 48
25.4
100
AcDbLine
 10
389.8625517148138
 20
1321.140809471108
 30
0.0
 11
389.8625517148138
 21
1308.140809471301
 31
0.0
  0
ARC
  5
92
330
3B
100
AcDbEntity
  8
0
  6
Continuous
 62
     7
 48
25.4
100
AcDbCircle
 10
555.3979830468123
 20
1331.140809471108
 30
0.0
 40
10.00000000000001
100
AcDbArc
 50
270.0
 51
10.22216863359072
  0
LINE
  5
93
330
3B
100
AcDbEntity
  8
0
  6
Continuous
 62
     7
 48
25.4
100
AcDbLine
 10
209.3271203808108
 20
1321.140809471108
 30
0.0
 11
555.3979830468123
 21
1321.140809471108
 31
0.0
  0
ARC
  5
94
330
3B
100
AcDbEntity
  8
0
  6
Continuous
 62
     7
 48
25.4
100
AcDbCircle
 10
209.3271203808108
 20
1331.140809471108
 30
0.0
 40
9.999999999999962
100
AcDbArc
 50
169.7778313664093
 51
270.0
  0
LINE
  5
95
330
3B
100
AcDbEntity
  8
0
  6
Continuous
 62
     7
 48
25.4
100
AcDbLine
 10
248.6544045026785
 20
1719.436641086479
 30
0.0
 11
199.4858502068127
 21
1332.915464749108
 31
0.0
  0
ARC
  5
96
330
3B
100
AcDbEntity
  8
0
 62
     7
 48
25.4
370
     9
100
AcDbCircle
 10
535.1974053268131
 20
375.0000028931063
 30
0.0
 40
175.0008092245635
100
AcDbArc
 50
90.17424177937783
 51
269.8257582206221
  0
LINE
  5
97
330
3B
100
AcDbEntity
  8
0
 62
     7
 48
25.4
370
     9
100
AcDbLine
 10
1396.721821293711
 20
362.0834028160334
 30
0.0
 11
1396.721821293711
 21
424.624092222757
 31
0.0
  0
LINE
  5
98
330
3B
100
AcDbEntity
  8
0
 62
     7
 48
25.4
370
     9
100
AcDbLine
 10
534.6652124555403
 20
200.0000028931063
 30
0.0
 11
1346.72540593371
 21
200.0000028931063
 31
0.0
  0
LINE
  5
99
330
3B
100
AcDbEntity
  8
0
 62
     7
 48
25.4
370
    30
100
AcDbLine
 10
49.41152043880356
 20
350.0000028931263
 30
0.0
 11
49.41152043879992
 21
375.0000028931063
 31
0.0
  0
ARC
  5
9A
330
3B
100
AcDbEntity
  8
0
 62
     7
 48
25.4
100
AcDbCircle
 10
339.4115204388036
 20
400.0000028931081
 30
0.0
 40
290.0
100
AcDbArc
 50
127.7171569172312
 51
180.0
  0
LINE
  5
9B
330
3B
100
AcDbEntity
  8
0
 62
     7
 48
25.4
370
    30
100
AcDbLine
 10
49.41152043880356
 20
400.0000028930879
 30
0.0
 11
49.41152043879992
 21
375.0000028931081
 31
0.0
  0
LINE
  5
9C
330
3B
100
AcDbEntity
  8
0
 62
     7
 48
25.4
370
     9
100
AcDbLine
 10
534.6652124555403
 20
550.0000028931081
 30
0.0
 11
1346.72540593371
 21
550.0000028931061
 31
0.0
  0
ARC
  5
9D
330
3B
100
AcDbEntity
  8
0
  6
Continuous
 62
     7
 48
25.4
100
AcDbCircle
 10
219.584634787414
 20
1250.390196644672
 30
0.0
 40
57.82741771024149
100
AcDbArc
 50
87.04666153165367
 51
174.7481549324843
  0
ARC
  5
9E
330
3B
100
AcDbEntity
  8
0
 62
     7
 48
25.4
370
     9
100
AcDbCircle
 10
1687.945329991533
 20
375.5239313858492
 30
0.0
 40
25.0
100
AcDbArc
 50
258.4303049333276
 51
101.6522920882369
  0
LINE
  5
9F
330
3B
100
AcDbEntity
  8
0
 62
     7
 48
25.4
370
     9
100
AcDbLine
 10
1687.933109376128
 20
350.5239343727189
 30
0.0
 11
1615.292112281579
 21
357.9010664441958
 31
0.0
  0
LINE
  5
A0
330
3B
100
AcDbEntity
  8
0
 62
     7
 48
25.4
370
     9
100
AcDbLine
 10
1687.957550606934
 20
400.5239283989813
 30
0.0
 11
1615.389879080412
 21
393.1372354176801
 31
0.0
  0
ARC
  5
A1
330
3B
100
AcDbEntity
  8
0
 62
     7
 48
25.4
370
     9
100
AcDbCircle
 10
1615.340995680999
 20
375.5191509309388
 30
0.0
 40
17.61815230291333
100
AcDbArc
 50
89.84102668535731
 51
269.8410266855657
  0
TEXT
  5
A2
330
3B
100
AcDbEntity
  8
0
370
     9
100
AcDbText
 10
1254.898584851722
 20
16.42973645368875
 30
0.0
 40
20.0
  1
WINDSOR 3 - 1700mm (right hand)
100
AcDbText
  0
ENDBLK
  5
A3
330
3B
100
AcDbEntity
  8
0
 48
25.4
370
     9
100
AcDbBlockEnd
  0
ENDSEC
  0
SECTION
  2
ENTITIES
  0
LINE
  5
DD
330
2
100
AcDbEntity
  8
0
  6
Continuous
 62
     7
 48
25.4
100
AcDbLine
 10
20140.45659411566
 20
-4190.119217119701
 30
0.0
 11
20140.45659411566
 21
-4079.908100327702
 31
0.0
  0
ELLIPSE
  5
DE
330
2
100
AcDbEntity
  8
0
  6
Continuous
 62
     7
 48
25.4
100
AcDbEllipse
 10
20090.46017875566
 20
-4079.968666877702
 30
0.0
 11
18.52185746727226
 21
-48.8885558937701
 31
0.0
210
0.0
220
0.0
230
-1.0
 40
0.9505610510608139
 41
3.52085988896446
 42
5.056892615321702
  0
ELLIPSE
  5
DF
330
2
100
AcDbEntity
  8
0
  6
Continuous
 62
     7
 48
25.4
100
AcDbEllipse
 10
20090.46017875566
 20
-4326.102967511701
 30
0.0
 11
-18.52185746481152
 21
-48.8885558920673
 31
0.0
210
0.0
220
0.0
230
-1.0
 40
0.9505610511125105
 41
4.367885345461661
 42
5.903918071857335
  0
LINE
  5
E0
330
2
100
AcDbEntity
  8
0
  6
Continuous
 62
     7
 48
25.4
100
AcDbLine
 10
20140.45659411566
 20
-4326.163534059701
 30
0.0
 11
20140.45659411566
 21
-4215.952417269701
 31
0.0
  0
LINE
  5
E1
330
2
100
AcDbEntity
  8
0
  6
Continuous
 62
     7
 48
25.4
100
AcDbLine
 10
18758.73475052876
 20
-4568.035817193702
 30
0.0
 11
18758.73475052876
 21
-3838.0358171937
 31
0.0
  0
LINE
  5
E2
330
2
100
AcDbEntity
  8
0
  6
Continuous
 62
     7
 48
25.4
100
AcDbLine
 10
20448.73475052876
 20
-4578.035817193701
 30
0.0
 11
18768.73475052876
 21
-4578.035817193701
 31
0.0
  0
LINE
  5
E3
330
2
100
AcDbEntity
  8
0
  6
Continuous
 62
     7
 48
25.4
100
AcDbLine
 10
20458.73475052876
 20
-3838.0358171937
 30
0.0
 11
20458.73475052876
 21
-4568.035817193702
 31
0.0
  0
LINE
  5
E4
330
2
100
AcDbEntity
  8
0
  6
Continuous
 62
     7
 48
25.4
100
AcDbLine
 10
18768.73475052876
 20
-3828.0358171937
 30
0.0
 11
18905.73475052876
 21
-3828.0358171937
 31
0.0
  0
LINE
  5
E5
330
2
100
AcDbEntity
  8
0
  6
Continuous
 62
     7
 48
25.4
100
AcDbLine
 10
19341.73475052876
 20
-3828.0358171937
 30
0.0
 11
20448.73475052876
 21
-3828.0358171937
 31
0.0
  0
ARC
  5
E6
330
2
100
AcDbEntity
  8
0
  6
Continuous
 62
     7
 48
25.4
100
AcDbCircle
 10
18768.73475052876
 20
-4568.035817193702
 30
0.0
 40
10.00000000000001
100
AcDbArc
 50
180.0
 51
270.0
  0
ARC
  5
E7
330
2
100
AcDbEntity
  8
0
  6
Continuous
 62
     7
 48
25.4
100
AcDbCircle
 10
20448.73475052876
 20
-4568.035817193702
 30
0.0
 40
10.00000000000001
100
AcDbArc
 50
270.0
 51
0.0
  0
ARC
  5
E8
330
2
100
AcDbEntity
  8
0
  6
Continuous
 62
     7
 48
25.4
100
AcDbCircle
 10
20448.73475052876
 20
-3838.0358171937
 30
0.0
 40
9.999999999999953
100
AcDbArc
 50
0.0
 51
90.0
  0
ARC
  5
E9
330
2
100
AcDbEntity
  8
0
  6
Continuous
 62
     7
 48
25.4
100
AcDbCircle
 10
20120.45659411566
 20
-4203.035817193701
 30
0.0
 40
19.99999999999948
100
AcDbArc
 50
319.7720651418712
 51
40.22793485812885
  0
ARC
  5
EA
330
2
100
AcDbEntity
  8
0
  6
Continuous
 62
     7
 48
25.4
100
AcDbCircle
 10
20120.45659411566
 20
-4203.035817193701
 30
0.0
 40
19.99999999999997
100
AcDbArc
 50
40.22793485812885
 51
319.7720651418712
  0
LINE
  5
EB
330
2
100
AcDbEntity
  8
0
  6
Continuous
 62
     7
 48
25.4
100
AcDbLine
 10
19341.73475052876
 20
-3888.0358171937
 30
0.0
 11
20226.60193235876
 21
-3888.0358171937
 31
0.0
  0
LINE
  5
EC
330
2
100
AcDbEntity
  8
0
  6
Continuous
 62
     7
 48
25.4
100
AcDbLine
 10
20406.60193235876
 20
-4074.028017397703
 30
0.0
 11
20406.60193235876
 21
-4332.043616989701
 31
0.0
  0
ARC
  5
ED
330
2
100
AcDbEntity
  8
0
  6
Continuous
 62
     7
 48
25.4
100
AcDbCircle
 10
20215.95163606513
 20
-4078.439514565815
 30
0.0
 40
190.7013287423932
100
AcDbArc
 50
1.325542510317539
 51
86.79847702247363
  0
ARC
  5
EE
330
2
100
AcDbEntity
  8
0
  6
Continuous
 62
     7
 48
25.4
100
AcDbCircle
 10
20215.95163606513
 20
-4327.632119821589
 30
0.0
 40
190.7013287423921
100
AcDbArc
 50
273.2015229775263
 51
358.6744574896824
  0
LINE
  5
EF
330
2
100
AcDbEntity
  8
0
  6
Continuous
 62
     7
 48
25.4
100
AcDbLine
 10
20226.60193235876
 20
-4518.035817193701
 30
0.0
 11
19083.14629326075
 21
-4518.035817193701
 31
0.0
  0
ARC
  5
F0
330
2
100
AcDbEntity
  8
0
 62
     7
 48
25.4
100
AcDbCircle
 10
19083.14629326075
 20
-4228.035817193699
 30
0.0
 40
290.0
100
AcDbArc
 50
180.0
 51
270.0
  0
SPLINE
  5
F1
330
2
100
AcDbEntity
  8
0
  6
Continuous
 62
     7
 48
25.4
100
AcDbSpline
210
0.0
220
0.0
230
1.0
 70
     8
 71
     3
 72
    34
 73
    30
 74
     0
 42
0.0000000001
 43
0.0000000001
 40
0.0
 40
0.0
 40
0.0
 40
0.0
 40
0.0020909496470034
 40
0.0039749363944989
 40
0.0436005352750647
 40
0.0935022080132522
 40
0.1520965160268936
 40
0.2198069568517661
 40
0.2437018730157693
 40
0.2501872305532252
 40
0.26349440165835
 40
0.3173160880552661
 40
0.3850151496050754
 40
0.4387057444450777
 40
0.499998985532104
 40
0.5630620247210219
 40
0.6238666288611327
 40
0.7023058974594436
 40
0.7299052223432402
 40
0.7498097072177284
 40
0.7539602154611238
 40
0.7577957129265535
 40
0.7980315291800784
 40
0.847817096290518
 40
0.9065651455701363
 40
0.9748534642873172
 40
0.9905570620986679
 40
0.9967328966428079
 40
1.0
 40
1.0
 40
1.0
 40
1.0
 10
18905.73475052806
 20
-3850.31904203401
 30
0.0
 10
18906.03630573006
 20
-3850.31822544658
 30
0.0
 10
18906.60956809872
 20
-3850.316673097817
 30
0.0
 10
18912.8979233076
 20
-3850.300218252463
 30
0.0
 10
18926.06475258621
 20
-3850.226367399969
 30
0.0
 10
18947.43716531645
 20
-3850.206040919874
 30
0.0
 10
18972.92898115369
 20
-3850.410699224929
 30
0.0
 10
18994.76153468227
 20
-3850.988121196441
 30
0.0
 10
19009.05168178642
 20
-3851.655400093502
 30
0.0
 10
19015.41652087525
 20
-3851.984374360599
 30
0.0
 10
19026.14529996339
 20
-3852.597730486144
 30
0.0
 10
19045.80220504444
 20
-3853.971336298809
 30
0.0
 10
19071.33359685649
 20
-3856.002370495903
 30
0.0
 10
19097.96987712216
 20
-3857.702883932821
 30
0.0
 10
19123.99343457043
 20
-3858.480233654481
 30
0.0
 10
19151.05673498843
 20
-3857.648665091373
 30
0.0
 10
19180.54750939232
 20
-3855.681617132931
 30
0.0
 10
19204.86434530798
 20
-3853.720701578598
 30
0.0
 10
19223.22265244751
 20
-3852.496499406039
 30
0.0
 10
19230.75138669584
 20
-3852.054542300776
 30
0.0
 10
19234.81509279568
 20
-3851.841240362361
 30
0.0
 10
19241.83997297038
 20
-3851.486720970143
 30
0.0
 10
19255.51127203048
 20
-3850.903804283079
 30
0.0
 10
19277.11701428246
 20
-3850.391026093533
 30
0.0
 10
19302.70056498099
 20
-3850.182247000913
 30
0.0
 10
19323.28296290664
 20
-3850.241953003813
 30
0.0
 10
19336.27760584883
 20
-3850.298444802992
 30
0.0
 10
19339.90151130153
 20
-3850.314536342713
 30
0.0
 10
19341.26351822364
 20
-3850.317883850524
 30
0.0
 10
19341.73475052806
 20
-3850.319042033932
 30
0.0
  0
LINE
  5
F2
330
2
100
AcDbEntity
  8
0
  6
Continuous
 62
     7
 48
25.4
100
AcDbLine
 10
18905.73475052876
 20
-3972.4747202537
 30
0.0
 11
19341.73475052876
 21
-3972.4747202537
 31
0.0
  0
LINE
  5
F3
330
2
100
AcDbEntity
  8
0
  6
Continuous
 62
     7
 48
25.4
100
AcDbLine
 10
18905.73475052876
 20
-3850.319042033701
 30
0.0
 11
18905.73475052876
 21
-3972.4747202537
 31
0.0
  0
LINE
  5
F4
330
2
100
AcDbEntity
  8
0
  6
Continuous
 62
     7
 48
25.4
100
AcDbLine
 10
18905.73475052876
 20
-3678.1058680837
 30
0.0
 11
18905.73475052876
 21
-3850.319042033701
 31
0.0
  0
LINE
  5
F5
330
2
100
AcDbEntity
  8
0
  6
Continuous
 62
     7
 48
25.4
100
AcDbLine
 10
18905.73475052876
 20
-3613.8019981577
 30
0.0
 11
18905.73475052876
 21
-3678.1058680837
 31
0.0
  0
LINE
  5
F6
330
2
100
AcDbEntity
  8
0
  6
Continuous
 62
     7
 48
25.4
100
AcDbLine
 10
18905.73475052876
 20
-3613.8019981577
 30
0.0
 11
18905.73475052876
 21
-3322.3524667457
 31
0.0
  0
ARC
  5
F7
330
2
100
AcDbEntity
  8
0
  6
Continuous
 62
     7
 48
25.4
100
AcDbCircle
 10
19284.15009344701
 20
-3327.645623442136
 30
0.0
 40
57.82741771024149
100
AcDbArc
 50
5.251845067515723
 51
92.95333846813816
  0
LINE
  5
F8
330
2
100
AcDbEntity
  8
0
  6
Continuous
 62
     7
 48
25.4
100
AcDbLine
 10
18966.29882985962
 20
-3269.89501061339
 30
0.0
 11
19281.17067119676
 21
-3269.8950106117
 31
0.0
  0
SPLINE
  5
F9
330
2
100
AcDbEntity
  8
0
  6
Continuous
 62
     7
 48
25.4
100
AcDbSpline
210
0.0
220
0.0
230
1.0
 70
     8
 71
     3
 72
    71
 73
    67
 74
     0
 42
0.0000000001
 43
0.0000000001
 40
0.0
 40
0.0
 40
0.0
 40
0.0
 40
0.0662673465498511
 40
0.1316255098764072
 40
0.1598430608489952
 40
0.1920164059091495
 40
0.2081366782312922
 40
0.2217281597174386
 40
0.2328237160495766
 40
0.2414435495566089
 40
0.2475978026924962
 40
0.2512901140537449
 40
0.2525210402789099
 40
0.2532487708121601
 40
0.2552004283115442
 40
0.2583772372663714
 40
0.2627827419050259
 40
0.2684220408039468
 40
0.2753014202375074
 40
0.2834286336628614
 40
0.2928123662364387
 40
0.3034611965128918
 40
0.3153820027734418
 40
0.3285778508457176
 40
0.3430455231383676
 40
0.3587730078781439
 40
0.375737473406832
 40
0.3978908319426388
 40
0.4149812999073045
 40
0.442975550750498
 40
0.4734410165609075
 40
0.5044384733785692
 40
0.5354669367491473
 40
0.569996656472113
 40
0.5948515860000211
 40
0.6075360525180922
 40
0.6242564691580226
 40
0.639167470266469
 40
0.6531340342258977
 40
0.6661394324003353
 40
0.6781735094426558
 40
0.6892317780471559
 40
0.6993141854014229
 40
0.7084237985493476
 40
0.7165655753521292
 40
0.7237453240332346
 40
0.7299689030870981
 40
0.7352416726179636
 40
0.7395681774203288
 40
0.7429520282035602
 40
0.7453965839037111
 40
0.7469033790145369
 40
0.7474733179395195
 40
0.7484157686674994
 40
0.7512427235737187
 40
0.7559543386107434
 40
0.762552125381118
 40
0.7710406049099939
 40
0.7814291886335603
 40
0.793733888162114
 40
0.8079784027769896
 40
0.8401517481909605
 40
0.8683692993123839
 40
0.9118120722825075
 40
0.9557556588804445
 40
1.0
 40
1.0
 40
1.0
 40
1.0
 10
18905.73475052806
 20
-3613.801998158448
 30
0.0
 10
18915.05216547813
 20
-3615.395844781972
 30
0.0
 10
18933.55916111605
 20
-3618.5616705681
 30
0.0
 10
18956.27634936513
 20
-3622.628765919439
 30
0.0
 10
18974.37960217562
 20
-3626.223088234254
 30
0.0
 10
18985.48435296683
 20
-3628.632368337608
 30
0.0
 10
18994.51223980175
 20
-3630.744617286377
 30
0.0
 10
19000.48000743741
 20
-3632.207745909953
 30
0.0
 10
19005.35636416175
 20
-3633.455028232305
 30
0.0
 10
19009.14655953826
 20
-3634.45087257556
 30
0.0
 10
19011.84864805749
 20
-3635.192469897139
 30
0.0
 10
19013.47446545404
 20
-3635.621608562843
 30
0.0
 10
19014.29678612323
 20
-3635.87144090477
 30
0.0
 10
19014.87975740056
 20
-3635.985586470211
 30
0.0
 10
19015.73634538323
 20
-3636.229226013598
 30
0.0
 10
19017.13607337176
 20
-3636.602548334864
 30
0.0
 10
19019.07067248998
 20
-3637.150213471102
 30
0.0
 10
19021.54529514658
 20
-3637.859385088972
 30
0.0
 10
19024.55938234139
 20
-3638.743694197256
 30
0.0
 10
19028.11488352074
 20
-3639.805297547154
 30
0.0
 10
19032.21305352539
 20
-3641.048160840556
 30
0.0
 10
19036.85559206316
 20
-3642.471414842982
 30
0.0
 10
19042.04421346486
 20
-3644.069556482721
 30
0.0
 10
19047.78077905736
 20
-3645.830021237868
 30
0.0
 10
19054.06722763101
 20
-3647.731498862821
 30
0.0
 10
19060.90580296644
 20
-3649.741293808592
 30
0.0
 10
19068.87791242888
 20
-3651.977370494078
 30
0.0
 10
19077.0893979228
 20
-3654.09733956238
 30
0.0
 10
19086.98144758743
 20
-3656.363665773651
 30
0.0
 10
19098.20703335722
 20
-3658.48230943674
 30
0.0
 10
19111.68164565137
 20
-3660.157417159404
 30
0.0
 10
19125.77298943869
 20
-3660.675192965378
 30
0.0
 10
19140.44767876541
 20
-3659.725370312476
 30
0.0
 10
19153.99982764424
 20
-3657.680424645386
 30
0.0
 10
19164.65200879448
 20
-3655.44079592956
 30
0.0
 10
19172.61214720548
 20
-3653.524699282117
 30
0.0
 10
19179.08147653383
 20
-3651.834145566762
 30
0.0
 10
19185.71118116026
 20
-3649.982344512241
 30
0.0
 10
19191.78678827678
 20
-3648.210287746265
 30
0.0
 10
19197.43888319669
 20
-3646.513566243446
 30
0.0
 10
19202.66905423282
 20
-3644.916691594422
 30
0.0
 10
19207.47870990906
 20
-3643.436956500547
 30
0.0
 10
19211.86920506167
 20
-3642.085892560303
 30
0.0
 10
19215.84181974952
 20
-3640.870251025739
 30
0.0
 10
19219.39777211587
 20
-3639.793064823874
 30
0.0
 10
19222.53817017845
 20
-3638.854387420394
 30
0.0
 10
19225.26410998785
 20
-3638.052627938689
 30
0.0
 10
19227.57632528609
 20
-3637.383741755018
 30
0.0
 10
19229.47614593784
 20
-3636.846324167302
 30
0.0
 10
19230.96289168637
 20
-3636.429768362191
 30
0.0
 10
19232.04059950645
 20
-3636.146345458938
 30
0.0
 10
19232.70218892865
 20
-3635.958901832572
 30
0.0
 10
19233.15323235087
 20
-3635.875422338824
 30
0.0
 10
19233.78431148437
 20
-3635.681624212895
 30
0.0
 10
19235.02927841709
 20
-3635.353827988692
 30
0.0
 10
19237.09737413037
 20
-3634.781712388519
 30
0.0
 10
19239.9979446128
 20
-3634.01066026692
 30
0.0
 10
19243.72860825071
 20
-3633.037261325638
 30
0.0
 10
19248.29296138103
 20
-3631.88539760756
 30
0.0
 10
19253.69261663458
 20
-3630.571393033624
 30
0.0
 10
19262.25734137622
 20
-3628.573426587317
 30
0.0
 10
19273.09001080585
 20
-3626.22311106992
 30
0.0
 10
19288.03775069876
 20
-3623.254955296764
 30
0.0
 10
19304.52017276945
 20
-3620.230191676529
 30
0.0
 10
19323.11097208885
 20
-3616.993282882242
 30
0.0
 10
19335.51272614204
 20
-3614.868175542324
 30
0.0
 10
19341.73475052806
 20
-3613.801998158452
 30
0.0
  0
LINE
  5
FA
330
2
100
AcDbEntity
  8
0
  6
Continuous
 62
     7
 48
25.4
100
AcDbLine
 10
19341.73475052876
 20
-3678.1058680837
 30
0.0
 11
19341.73475052876
 21
-3850.319042033701
 31
0.0
  0
LINE
  5
FB
330
2
100
AcDbEntity
  8
0
  6
Continuous
 62
     7
 48
25.4
100
AcDbLine
 10
19341.73475052876
 20
-3613.8019981577
 30
0.0
 11
19341.73475052876
 21
-3678.1058680837
 31
0.0
  0
LINE
  5
FC
330
2
100
AcDbEntity
  8
0
  6
Continuous
 62
     7
 48
25.4
100
AcDbLine
 10
19341.73475052876
 20
-3613.8019981577
 30
0.0
 11
19341.73475052876
 21
-3322.3524667457
 31
0.0
  0
LINE
  5
FD
330
2
100
AcDbEntity
  8
0
  6
Continuous
 62
     7
 48
25.4
100
AcDbLine
 10
19341.73475052876
 20
-3850.319042033701
 30
0.0
 11
19341.73475052876
 21
-3972.4747202537
 31
0.0
  0
LINE
  5
FE
330
2
100
AcDbEntity
  8
0
  6
Continuous
 62
     7
 48
25.4
100
AcDbLine
 10
19377.68534992076
 20
-3806.974720253701
 30
0.0
 11
19341.73475052876
 21
-3806.974720253701
 31
0.0
  0
LINE
  5
FF
330
2
100
AcDbEntity
  8
0
  6
Continuous
 62
     7
 48
25.4
100
AcDbLine
 10
18905.73475052876
 20
-3806.974720253701
 30
0.0
 11
18872.68534992076
 21
-3806.974720253701
 31
0.0
  0
LINE
  5
100
330
2
100
AcDbEntity
  8
0
  6
Continuous
 62
     7
 48
25.4
100
AcDbLine
 10
18897.68534992076
 20
-3781.974720253701
 30
0.0
 11
18905.73475052876
 21
-3781.974720253701
 31
0.0
  0
LINE
  5
101
330
2
100
AcDbEntity
  8
0
  6
Continuous
 62
     7
 48
25.4
100
AcDbLine
 10
19341.73475052876
 20
-3781.974720253701
 30
0.0
 11
19352.68534992076
 21
-3781.974720253701
 31
0.0
  0
LINE
  5
102
330
2
100
AcDbEntity
  8
0
  6
Continuous
 62
     7
 48
25.4
100
AcDbLine
 10
18872.68534992076
 20
-3806.974720253701
 30
0.0
 11
18872.68534992076
 21
-3456.974720253701
 31
0.0
  0
LINE
  5
103
330
2
100
AcDbEntity
  8
0
  6
Continuous
 62
     7
 48
25.4
100
AcDbLine
 10
18897.68534992076
 20
-3456.974720253701
 30
0.0
 11
18897.68534992076
 21
-3781.974720253701
 31
0.0
  0
ARC
  5
104
330
2
100
AcDbEntity
  8
0
  6
Continuous
 62
     7
 48
25.4
100
AcDbCircle
 10
18885.18534992076
 20
-3456.974720253701
 30
0.0
 40
12.50000000000001
100
AcDbArc
 50
90.0
 51
180.0
  0
ARC
  5
105
330
2
100
AcDbEntity
  8
0
  6
Continuous
 62
     7
 48
25.4
100
AcDbCircle
 10
18885.18534992076
 20
-3456.974720253701
 30
0.0
 40
12.50000000000007
100
AcDbArc
 50
0.0
 51
90.0
  0
ARC
  5
106
330
2
100
AcDbEntity
  8
0
  6
Continuous
 62
     7
 48
25.4
100
AcDbCircle
 10
19365.18534992076
 20
-3456.974720253701
 30
0.0
 40
12.50000000000007
100
AcDbArc
 50
90.0
 51
180.0
  0
ARC
  5
107
330
2
100
AcDbEntity
  8
0
  6
Continuous
 62
     7
 48
25.4
100
AcDbCircle
 10
19365.18534992076
 20
-3456.974720253701
 30
0.0
 40
12.50000000000007
100
AcDbArc
 50
0.0
 51
90.0
  0
LINE
  5
108
330
2
100
AcDbEntity
  8
0
  6
Continuous
 62
     7
 48
25.4
100
AcDbLine
 10
19377.68534992076
 20
-3456.974720253701
 30
0.0
 11
19377.68534992076
 21
-3806.974720253701
 31
0.0
  0
LINE
  5
109
330
2
100
AcDbEntity
  8
0
  6
Continuous
 62
     7
 48
25.4
100
AcDbLine
 10
19352.68534992076
 20
-3781.974720253701
 30
0.0
 11
19352.68534992076
 21
-3456.974720253701
 31
0.0
  0
LINE
  5
10A
330
2
100
AcDbEntity
  8
0
  6
Continuous
 62
     7
 48
25.4
100
AcDbLine
 10
18758.73475052876
 20
-3832.0358171937
 30
0.0
 11
18758.73475052876
 21
-3838.0358171937
 31
0.0
  0
ARC
  5
10B
330
2
100
AcDbEntity
  8
0
  6
Continuous
 62
     7
 48
25.4
100
AcDbCircle
 10
18762.73475052876
 20
-3832.0358171937
 30
0.0
 40
4.0
100
AcDbArc
 50
90.0
 51
180.0
  0
LINE
  5
10C
330
2
100
AcDbEntity
  8
0
  6
Continuous
 62
     7
 48
25.4
100
AcDbLine
 10
20361.98357385076
 20
-3813.0358171937
 30
0.0
 11
19341.73475052876
 21
-3813.0358171937
 31
0.0
  0
LINE
  5
10D
330
2
100
AcDbEntity
  8
0
  6
Continuous
 62
     7
 48
25.4
100
AcDbLine
 10
18905.73475052876
 20
-3813.0358171937
 30
0.0
 11
18855.48592720476
 21
-3813.0358171937
 31
0.0
  0
LINE
  5
10E
330
2
100
AcDbEntity
  8
0
  6
Continuous
 62
     7
 48
25.4
100
AcDbLine
 10
18768.73475052876
 20
-3828.0358171937
 30
0.0
 11
18762.73475052876
 21
-3828.0358171937
 31
0.0
  0
LINE
  5
10F
330
2
100
AcDbEntity
  8
0
  6
Continuous
 62
     7
 48
25.4
100
AcDbLine
 10
20448.73475052876
 20
-3828.0358171937
 30
0.0
 11
20365.45928052876
 21
-3813.340146017701
 31
0.0
  0
ARC
  5
110
330
2
100
AcDbEntity
  8
0
  6
Continuous
 62
     7
 48
25.4
100
AcDbCircle
 10
20361.98357385076
 20
-3833.0358171937
 30
0.0
 40
20.0
100
AcDbArc
 50
79.99202019865828
 51
90.0
  0
ARC
  5
111
330
2
100
AcDbEntity
  8
0
  6
Continuous
 62
     7
 48
25.4
100
AcDbCircle
 10
18855.48592720476
 20
-3833.0358171937
 30
0.0
 40
20.0
100
AcDbArc
 50
90.0
 51
100.0079798013417
  0
ARC
  5
112
330
2
100
AcDbEntity
  8
0
  6
Continuous
 62
     7
 48
25.4
100
AcDbCircle
 10
18766.98357385076
 20
-3808.0358171937
 30
0.0
 40
19.99999999999997
100
AcDbArc
 50
270.0
 51
277.6960517219747
  0
LINE
  5
113
330
2
100
AcDbEntity
  8
0
  6
Continuous
 62
     7
 48
25.4
100
AcDbLine
 10
18852.01022052676
 20
-3813.340146017701
 30
0.0
 11
18769.66193177078
 21
-3827.855665801907
 31
0.0
  0
ELLIPSE
  5
114
330
2
100
AcDbEntity
  8
0
  6
Continuous
 62
     7
 48
25.4
100
AcDbEllipse
 10
18778.37444774476
 20
-3881.533729059701
 30
0.0
 11
19.81984860841081
 21
-2.678357920027219
 31
0.0
210
0.0
220
0.0
230
-1.0
 40
0.7039005128000002
 41
2.951919959409194
 42
3.141592653589792
  0
ELLIPSE
  5
115
330
2
100
AcDbEntity
  8
0
  6
Continuous
 62
     7
 48
25.4
100
AcDbEllipse
 10
18778.04963800476
 20
-3883.548554621699
 30
0.0
 11
19.65744373867467
 21
-3.685770701005603
 31
0.0
210
0.0
220
0.0
230
-1.0
 40
0.8064254259999998
 41
2.913144008768758
 42
3.141592653589796
  0
ELLIPSE
  5
116
330
2
100
AcDbEntity
  8
0
  6
Continuous
 62
     7
 48
25.4
100
AcDbEllipse
 10
18778.37444774476
 20
-4554.5379053277
 30
0.0
 11
-19.81984860831934
 21
-2.678357920026906
 31
0.0
210
0.0
220
0.0
230
-1.0
 40
0.7039005128
 41
0.0
 42
0.1896726941814828
  0
ELLIPSE
  5
117
330
2
100
AcDbEntity
  8
0
  6
Continuous
 62
     7
 48
25.4
100
AcDbEllipse
 10
18778.04963800476
 20
-4552.523079765699
 30
0.0
 11
-19.65744373872736
 21
-3.685770701003175
 31
0.0
210
0.0
220
0.0
230
-1.0
 40
0.8064254259999998
 41
0.0
 42
0.2284486448203008
  0
ELLIPSE
  5
118
330
2
100
AcDbEntity
  8
0
  6
Continuous
 62
     7
 48
25.4
100
AcDbEllipse
 10
18738.73475052676
 20
-4559.8946211677
 30
0.0
 11
0.0000000000164001
 21
40.00000000033021
 31
0.0
210
0.0
220
0.0
230
-1.0
 40
0.5
 41
1.436474884842096
 42
1.570796326793953
  0
ARC
  5
119
330
2
100
AcDbEntity
  8
0
  6
Continuous
 62
     7
 48
25.4
100
AcDbCircle
 10
18738.73475052876
 20
-4559.8946211677
 30
0.0
 40
19.99999999999997
100
AcDbArc
 50
0.0
 51
7.696051721960742
  0
ARC
  5
11A
330
2
100
AcDbEntity
  8
0
  6
Continuous
 62
     7
 48
25.4
100
AcDbCircle
 10
18718.91490192076
 20
-4559.8946211677
 30
0.0
 40
39.99999999998335
100
AcDbArc
 50
7.696051721960742
 51
10.61965527618074
  0
LINE
  5
11B
330
2
100
AcDbEntity
  8
0
  6
Continuous
 62
     7
 48
25.4
100
AcDbLine
 10
18744.07730678876
 20
-4479.862783921702
 30
0.0
 11
18758.39219426676
 21
-4556.2088504677
 31
0.0
  0
ARC
  5
11C
330
2
100
AcDbEntity
  8
0
  6
Continuous
 62
     7
 48
25.4
100
AcDbCircle
 10
18763.73475052876
 20
-4476.1770132197
 30
0.0
 40
20.00000000000002
100
AcDbArc
 50
180.0
 51
190.6196552761807
  0
LINE
  5
11D
330
2
100
AcDbEntity
  8
0
  6
Continuous
 62
     7
 48
25.4
100
AcDbLine
 10
18743.73475052876
 20
-3959.8946211677
 30
0.0
 11
18743.73475052876
 21
-4476.1770132197
 31
0.0
  0
LINE
  5
11E
330
2
100
AcDbEntity
  8
0
  6
Continuous
 62
     7
 48
25.4
100
AcDbLine
 10
18758.55459913676
 20
-3881.533729059701
 30
0.0
 11
18758.55459913676
 21
-4554.5379053277
 31
0.0
  0
ELLIPSE
  5
11F
330
2
100
AcDbEntity
  8
0
  6
Continuous
 62
     7
 48
25.4
100
AcDbEllipse
 10
18738.73475052876
 20
-3876.177013219701
 30
0.0
 11
-0.0000000000520591
 21
-39.99999999938192
 31
0.0
210
0.0
220
0.0
230
-1.0
 40
0.5
 41
4.712388980382105
 42
4.846710422337157
  0
ARC
  5
120
330
2
100
AcDbEntity
  8
0
  6
Continuous
 62
     7
 48
25.4
100
AcDbCircle
 10
18738.73475052876
 20
-3876.177013219701
 30
0.0
 40
19.9999999999998
100
AcDbArc
 50
352.3039482780393
 51
0.0
  0
ARC
  5
121
330
2
100
AcDbEntity
  8
0
  6
Continuous
 62
     7
 48
25.4
100
AcDbCircle
 10
18718.91490192076
 20
-3876.177013219701
 30
0.0
 40
40.00000000000044
100
AcDbArc
 50
349.3803447238193
 51
352.3039482780393
  0
LINE
  5
122
330
2
100
AcDbEntity
  8
0
  6
Continuous
 62
     7
 48
25.4
100
AcDbLine
 10
18758.39219426676
 20
-3879.8627839217
 30
0.0
 11
18744.07730678876
 21
-3956.208850467701
 31
0.0
  0
ARC
  5
123
330
2
100
AcDbEntity
  8
0
  6
Continuous
 62
     7
 48
25.4
100
AcDbCircle
 10
18763.73475052876
 20
-3959.8946211677
 30
0.0
 40
20.0
100
AcDbArc
 50
169.3803447238192
 51
180.0
  0
LINE
  5
124
330
2
100
AcDbEntity
  8
0
  6
Continuous
 62
     7
 48
25.4
100
AcDbLine
 10
18869.33960144276
 20
-3910.0358171937
 30
0.0
 11
18905.73475052876
 21
-3910.0358171937
 31
0.0
  0
CIRCLE
  5
125
330
2
100
AcDbEntity
  8
0
  6
Continuous
 62
     7
 48
25.4
100
AcDbCircle
 10
18838.73475052876
 20
-3925.0358171937
 30
0.0
 40
29.0
  0
CIRCLE
  5
126
330
2
100
AcDbEntity
  8
0
  6
Continuous
 62
     7
 48
25.4
100
AcDbCircle
 10
18838.73475052876
 20
-3925.0358171937
 30
0.0
 40
34.0
  0
LINE
  5
127
330
2
100
AcDbEntity
  8
0
  6
Continuous
 62
     7
 48
25.4
100
AcDbLine
 10
18905.73475052876
 20
-3940.035817193699
 30
0.0
 11
18869.31709542876
 21
-3940.035817193699
 31
0.0
  0
ARC
  5
128
330
2
100
AcDbEntity
  8
0
  6
Continuous
 62
     7
 48
25.4
100
AcDbCircle
 10
18838.73475052876
 20
-3925.0358171937
 30
0.0
 40
56.0
100
AcDbArc
 50
15.53679406826835
 51
344.4632059317316
  0
ARC
  5
129
330
2
100
AcDbEntity
  8
0
  6
Continuous
 62
     7
 48
25.4
100
AcDbCircle
 10
18838.73475052876
 20
-3925.0358171937
 30
0.0
 40
35.94840344592762
100
AcDbArc
 50
24.66201699974684
 51
335.3379830002532
  0
LINE
  5
12A
330
2
100
AcDbEntity
  8
0
  6
Continuous
 62
     7
 48
25.4
100
AcDbLine
 10
19308.97402604276
 20
-3245.1203553377
 30
0.0
 11
19259.80547174689
 21
-2858.599179000329
 31
0.0
  0
LINE
  5
12B
330
2
100
AcDbEntity
  8
0
  6
Continuous
 62
     7
 48
25.4
100
AcDbLine
 10
19235.20229631076
 20
-2838.035817193703
 30
0.0
 11
19016.99235276076
 21
-2838.035817193703
 31
0.0
  0
ARC
  5
12C
330
2
100
AcDbEntity
  8
0
  6
Continuous
 62
     7
 48
25.4
100
AcDbCircle
 10
19235.20229631076
 20
-2863.035817193702
 30
0.0
 40
24.9999999999995
100
AcDbArc
 50
10.22216863359072
 51
90.0
  0
ARC
  5
12D
330
2
100
AcDbEntity
  8
0
  6
Continuous
 62
     7
 48
25.4
100
AcDbCircle
 10
19016.99235276076
 20
-2863.035817193702
 30
0.0
 40
24.9999999999997
100
AcDbArc
 50
90.0
 51
169.7778313664093
  0
LINE
  5
12E
330
2
100
AcDbEntity
  8
0
  6
Continuous
 62
     7
 48
25.4
100
AcDbLine
 10
19118.59732453494
 20
-3269.895010615894
 30
0.0
 11
19118.59732453676
 21
-3256.8950106157
 31
0.0
  0
LINE
  5
12F
330
2
100
AcDbEntity
  8
0
  6
Continuous
 62
     7
 48
25.4
100
AcDbLine
 10
19133.59732453676
 20
-3256.8950106157
 30
0.0
 11
19133.59732453676
 21
-3269.895010615507
 31
0.0
  0
ARC
  5
130
330
2
100
AcDbEntity
  8
0
  6
Continuous
 62
     7
 48
25.4
100
AcDbCircle
 10
19299.13275586876
 20
-3246.895010615701
 30
0.0
 40
10.00000000000001
100
AcDbArc
 50
270.0
 51
10.22216863359072
  0
LINE
  5
131
330
2
100
AcDbEntity
  8
0
  6
Continuous
 62
     7
 48
25.4
100
AcDbLine
 10
18953.06189320276
 20
-3256.8950106157
 30
0.0
 11
19299.13275586876
 21
-3256.8950106157
 31
0.0
  0
ARC
  5
132
330
2
100
AcDbEntity
  8
0
  6
Continuous
 62
     7
 48
25.4
100
AcDbCircle
 10
18953.06189320276
 20
-3246.895010615701
 30
0.0
 40
9.999999999999962
100
AcDbArc
 50
169.7778313664093
 51
270.0
  0
LINE
  5
133
330
2
100
AcDbEntity
  8
0
  6
Continuous
 62
     7
 48
25.4
100
AcDbLine
 10
18992.38917732463
 20
-2858.599179000329
 30
0.0
 11
18943.22062302876
 21
-3245.1203553377
 31
0.0
  0
ARC
  5
134
330
2
100
AcDbEntity
  8
0
 62
     7
 48
25.4
370
     9
100
AcDbCircle
 10
19278.93217814876
 20
-4203.035817193701
 30
0.0
 40
175.0008092245635
100
AcDbArc
 50
90.17424177937785
 51
269.8257582206221
  0
LINE
  5
135
330
2
100
AcDbEntity
  8
0
 62
     7
 48
25.4
370
     9
100
AcDbLine
 10
20140.45659411566
 20
-4215.952417270774
 30
0.0
 11
20140.45659411566
 21
-4153.41172786405
 31
0.0
  0
LINE
  5
136
330
2
100
AcDbEntity
  8
0
 62
     7
 48
25.4
370
     9
100
AcDbLine
 10
19278.39998527749
 20
-4378.035817193701
 30
0.0
 11
20090.46017875566
 21
-4378.035817193701
 31
0.0
  0
LINE
  5
137
330
2
100
AcDbEntity
  8
0
 62
     7
 48
25.4
370
    30
100
AcDbLine
 10
18793.14629326075
 20
-4228.035817193681
 30
0.0
 11
18793.14629326075
 21
-4203.035817193701
 31
0.0
  0
ARC
  5
138
330
2
100
AcDbEntity
  8
0
 62
     7
 48
25.4
100
AcDbCircle
 10
19083.14629326075
 20
-4178.035817193699
 30
0.0
 40
290.0
100
AcDbArc
 50
127.7171569172312
 51
180.0
  0
LINE
  5
139
330
2
100
AcDbEntity
  8
0
 62
     7
 48
25.4
370
    30
100
AcDbLine
 10
18793.14629326075
 20
-4178.035817193719
 30
0.0
 11
18793.14629326075
 21
-4203.0358171937
 31
0.0
  0
LINE
  5
13A
330
2
100
AcDbEntity
  8
0
 62
     7
 48
25.4
370
     9
100
AcDbLine
 10
19278.39998527749
 20
-4028.035817193699
 30
0.0
 11
20090.46017875566
 21
-4028.035817193702
 31
0.0
  0
ARC
  5
13B
330
2
100
AcDbEntity
  8
0
  6
Continuous
 62
     7
 48
25.4
100
AcDbCircle
 10
18963.31940760936
 20
-3327.645623442136
 30
0.0
 40
57.82741771024149
100
AcDbArc
 50
87.04666153165367
 51
174.7481549324843
  0
ARC
  5
13C
330
2
100
AcDbEntity
  8
0
 62
     7
 48
25.4
370
     9
100
AcDbCircle
 10
20431.68010281348
 20
-4202.511888700958
 30
0.0
 40
25.0
100
AcDbArc
 50
258.4303049333276
 51
101.6522920882369
  0
LINE
  5
13D
330
2
100
AcDbEntity
  8
0
 62
     7
 48
25.4
370
     9
100
AcDbLine
 10
20431.66788219808
 20
-4227.511885714089
 30
0.0
 11
20359.02688510353
 21
-4220.134753642612
 31
0.0
  0
LINE
  5
13E
330
2
100
AcDbEntity
  8
0
 62
     7
 48
25.4
370
     9
100
AcDbLine
 10
20431.69232342889
 20
-4177.511891687826
 30
0.0
 11
20359.12465190236
 21
-4184.898584669127
 31
0.0
  0
ARC
  5
13F
330
2
100
AcDbEntity
  8
0
 62
     7
 48
25.4
370
     9
100
AcDbCircle
 10
20359.07576850295
 20
-4202.516669155868
 30
0.0
 40
17.61815230291333
100
AcDbArc
 50
89.84102668535733
 51
269.8410266855657
  0
TEXT
  5
140
330
2
100
AcDbEntity
  8
0
370
     9
100
AcDbText
 10
19998.63335767367
 20
-4561.606083633119
 30
0.0
 40
20.0
  1
PHOENIX 3 (VERSIONE DESTRA)
100
AcDbText
  0
ENDSEC
  0
SECTION
  2
OBJECTS
  0
DICTIONARY
  5
9
330
0
100
AcDbDictionary
281
     1
  3
ACAD_COLOR
350
32
  3
ACAD_GROUP
350
2D
  3
ACAD_LAYOUT
350
F
  3
ACAD_MATERIAL
350
B
  3
ACAD_MLINESTYLE
350
2E
  3
ACAD_PLOTSETTINGS
350
2F
  3
ACAD_PLOTSTYLENAME
350
8
  3
ACAD_TABLESTYLE
350
33
  3
ACAD_VISUALSTYLE
350
26
  3
AcDbVariableDictionary
350
B6
  0
DICTIONARY
  5
27
330
23
100
AcDbDictionary
280
     1
281
     1
  0
DICTIONARY
  5
16
330
15
100
AcDbDictionary
280
     1
281
     1
  3
ACAD_LAYERFILTERS
360
17
  3
ACAD_LAYERSTATES
360
18
  3
ACLYDICTIONARY
360
19
  0
DICTIONARY
  5
3
330
2
100
AcDbDictionary
280
     1
281
     1
  3
ACAD_SORTENTS
360
A5
  0
DICTIONARY
  5
3C
330
3B
100
AcDbDictionary
280
     1
281
     1
  3
ACAD_SORTENTS
360
A4
  0
DICTIONARY
  5
32
102
{ACAD_REACTORS
330
9
102
}
330
9
100
AcDbDictionary
281
     1
  0
DICTIONARY
  5
2D
102
{ACAD_REACTORS
330
9
102
}
330
9
100
AcDbDictionary
281
     1
  0
DICTIONARY
  5
F
102
{ACAD_REACTORS
330
9
102
}
330
9
100
AcDbDictionary
281
     1
  3
Layout1
350
14
  3
Model
350
E
  0
DICTIONARY
  5
B
102
{ACAD_REACTORS
330
9
102
}
330
9
100
AcDbDictionary
281
     1
  3
ByBlock
350
31
  3
ByLayer
350
30
  3
Global
350
A
  0
DICTIONARY
  5
2E
102
{ACAD_REACTORS
330
9
102
}
330
9
100
AcDbDictionary
281
     1
  3
Standard
350
36
  0
DICTIONARY
  5
2F
102
{ACAD_REACTORS
330
9
102
}
330
9
100
AcDbDictionary
281
     1
  0
ACDBDICTIONARYWDFLT
  5
8
102
{ACAD_REACTORS
330
9
102
}
330
9
100
AcDbDictionary
281
     1
  3
Normal
350
7
100
AcDbDictionaryWithDefault
340
7
  0
DICTIONARY
  5
33
102
{ACAD_REACTORS
330
9
102
}
330
9
100
AcDbDictionary
281
     1
  3
Standard
350
37
  0
DICTIONARY
  5
26
102
{ACAD_REACTORS
330
9
102
}
330
9
100
AcDbDictionary
281
     1
  3
2dWireframe
350
25
  3
3D Hidden
350
C2
  3
3dWireframe
350
39
  3
Basic
350
C1
  3
Brighten
350
C5
  3
ColorChange
350
C9
  3
Conceptual
350
C3
  3
Dim
350
C4
  3
Facepattern
350
C8
  3
Flat
350
BD
  3
FlatWithEdges
350
BE
  3
Gouraud
350
BF
  3
GouraudWithEdges
350
C0
  3
Linepattern
350
C7
  3
Realistic
350
38
  3
Thicken
350
C6
  0
DICTIONARY
  5
B6
102
{ACAD_REACTORS
330
9
102
}
330
9
100
AcDbDictionary
281
     1
  3
CTABLESTYLE
350
B7
  3
DIMASSOC
350
BB
  3
HIDETEXT
350
BA
  3
INDEXCTL
350
B9
  3
SORTENTS
350
B8
  0
DICTIONARY
  5
17
102
{ACAD_REACTORS
330
16
102
}
330
16
100
AcDbDictionary
281
     1
  0
DICTIONARY
  5
18
102
{ACAD_REACTORS
330
16
102
}
330
16
100
AcDbDictionary
281
     1
  0
DICTIONARY
  5
19
102
{ACAD_REACTORS
330
16
102
}
330
16
100
AcDbDictionary
281
     1
1001
ACAD
1000
<All
  0
SORTENTSTABLE
  5
A5
102
{ACAD_REACTORS
330
3
102
}
330
3
100
AcDbSortentsTable
330
2
331
129
  5
129
331
13A
  5
13A
331
118
  5
118
331
105
  5
105
331
F4
  5
F4
331
E3
  5
E3
331
138
  5
138
331
116
  5
116
331
103
  5
103
331
127
  5
127
331
F2
  5
F2
331
E1
  5
E1
331
136
  5
136
331
114
  5
114
331
101
  5
101
331
125
  5
125
331
F0
  5
F0
331
134
  5
134
331
112
  5
112
331
FF
  5
FF
331
123
  5
123
331
EE
  5
EE
331
132
  5
132
331
110
  5
110
331
FD
  5
FD
331
121
  5
121
331
10E
  5
10E
331
EC
  5
EC
331
130
  5
130
331
FB
  5
FB
331
11F
  5
11F
331
10C
  5
10C
331
EA
  5
EA
331
12E
  5
12E
331
F9
  5
F9
331
13F
  5
13F
331
11D
  5
11D
331
10A
  5
10A
331
E8
  5
E8
331
DF
  5
DF
331
12C
  5
12C
331
13D
  5
13D
331
11B
  5
11B
331
108
  5
108
331
F7
  5
F7
331
E6
  5
E6
331
DD
  5
DD
331
12A
  5
12A
331
13B
  5
13B
331
119
  5
119
331
106
  5
106
331
F5
  5
F5
331
E4
  5
E4
331
128
  5
128
331
139
  5
139
331
117
  5
117
331
104
  5
104
331
F3
  5
F3
331
E2
  5
E2
331
137
  5
137
331
115
  5
115
331
102
  5
102
331
126
  5
126
331
F1
  5
F1
331
E0
  5
E0
331
135
  5
135
331
113
  5
113
331
100
  5
100
331
124
  5
124
331
EF
  5
EF
331
133
  5
133
331
111
  5
111
331
FE
  5
FE
331
122
  5
122
331
10F
  5
10F
331
ED
  5
ED
331
131
  5
131
331
FC
  5
FC
331
120
  5
120
331
10D
  5
10D
331
EB
  5
EB
331
12F
  5
12F
331
FA
  5
FA
331
140
  5
140
331
11E
  5
11E
331
10B
  5
10B
331
E9
  5
E9
331
12D
  5
12D
331
F8
  5
F8
331
13E
  5
13E
331
11C
  5
11C
331
109
  5
109
331
E7
  5
E7
331
DE
  5
DE
331
12B
  5
12B
331
13C
  5
13C
331
11A
  5
11A
331
107
  5
107
331
F6
  5
F6
331
E5
  5
E5
  0
SORTENTSTABLE
  5
A4
102
{ACAD_REACTORS
330
3C
102
}
330
3C
100
AcDbSortentsTable
330
3B
  0
LAYOUT
  5
14
102
{ACAD_REACTORS
330
F
102
}
330
F
100
AcDbPlotSettings
  1

  2

  4

  6

 40
0.0
 41
0.0
 42
0.0
 43
0.0
 44
0.0
 45
0.0
 46
0.0
 47
0.0
 48
0.0
 49
0.0
140
0.0
141
0.0
142
1.0
143
1.0
 70
   688
 72
     0
 73
     0
 74
     5
  7

 75
    16
147
1.0
 76
     0
 77
     2
 78
   300
148
0.0
149
0.0
100
AcDbLayout
  1
Layout1
 70
     1
 71
     1
 10
0.0
 20
0.0
 11
12.0
 21
9.0
 12
0.0
 22
0.0
 32
0.0
 14
0.0
 24
0.0
 34
0.0
 15
431.8
 25
279.4
 35
0.0
146
0.0
 13
0.0
 23
0.0
 33
0.0
 16
1.0
 26
0.0
 36
0.0
 17
0.0
 27
1.0
 37
0.0
 76
     0
330
11
  0
LAYOUT
  5
E
102
{ACAD_REACTORS
330
F
102
}
330
F
100
AcDbPlotSettings
  1

  2
PrimoPDF
  4
A4
  6

 40
3.174999952316283
 41
3.174999952316283
 42
3.175003051757812
 43
3.17498779296875
 44
209.8886566162109
 45
297.0530090332031
 46
0.0
 47
0.0
 48
19511.11100844126
 49
-5389.374767771624
140
23493.51808027309
141
-1160.229401081451
142
1.0
143
20.0
 70
 11936
 72
     1
 73
     1
 74
     4
  7

 75
     0
147
0.0457551531797123
 76
     0
 77
     2
 78
   300
148
-19511.11100844126
149
5389.374767771624
100
AcDbLayout
  1
Model
 70
     1
 71
     0
 10
0.0
 20
0.0
 11
431.8
 21
279.4
 12
0.0
 22
0.0
 32
0.0
 14
0.0
 24
0.0
 34
0.0
 15
431.8
 25
279.4
 35
0.0
146
0.0
 13
0.0
 23
0.0
 33
0.0
 16
1.0
 26
0.0
 36
0.0
 17
0.0
 27
1.0
 37
0.0
 76
     0
330
2
331
24
1001
ACAD_PSEXT
1000
PrimoPDF
1000
PrimoPDF
1000
PrimoPort:
1000

1070
     0
  0
MATERIAL
  5
31
102
{ACAD_XDICTIONARY
360
D5
102
}
102
{ACAD_REACTORS
330
B
102
}
330
B
100
AcDbMaterial
  1
ByBlock
  0
MATERIAL
  5
30
102
{ACAD_XDICTIONARY
360
D3
102
}
102
{ACAD_REACTORS
330
B
102
}
330
B
100
AcDbMaterial
  1
ByLayer
  0
MATERIAL
  5
A
102
{ACAD_XDICTIONARY
360
CD
102
}
102
{ACAD_REACTORS
330
B
102
}
330
B
100
AcDbMaterial
  1
Global
  0
MLINESTYLE
  5
36
102
{ACAD_REACTORS
330
2E
102
}
330
2E
100
AcDbMlineStyle
  2
STANDARD
 70
     0
  3

 62
   256
 51
90.0
 52
90.0
 71
     2
 49
0.5
 62
   256
  6
BYLAYER
 49
-0.5
 62
   256
  6
BYLAYER
  0
ACDBPLACEHOLDER
  5
7
102
{ACAD_REACTORS
330
8
102
}
330
8
  0
TABLESTYLE
  5
37
102
{ACAD_REACTORS
330
33
102
}
330
33
100
AcDbTableStyle
  3
Standard
 70
     0
 71
     0
 40
0.06
 41
0.06
280
     0
281
     0
  7
Standard
140
0.18
170
     2
 62
     0
 63
     7
283
     0
 90
        4
 91
        0
  1

274
    -2
284
     1
 64
     0
275
    -2
285
     1
 65
     0
276
    -2
286
     1
 66
     0
277
    -2
287
     1
 67
     0
278
    -2
288
     1
 68
     0
279
    -2
289
     1
 69
     0
  7
Standard
140
0.25
170
     5
 62
     0
 63
     7
283
     0
 90
        4
 91
        0
  1

274
    -2
284
     1
 64
     0
275
    -2
285
     1
 65
     0
276
    -2
286
     1
 66
     0
277
    -2
287
     1
 67
     0
278
    -2
288
     1
 68
     0
279
    -2
289
     1
 69
     0
  7
Standard
140
0.18
170
     5
 62
     0
 63
     7
283
     0
 90
        4
 91
        0
  1

274
    -2
284
     1
 64
     0
275
    -2
285
     1
 65
     0
276
    -2
286
     1
 66
     0
277
    -2
287
     1
 67
     0
278
    -2
288
     1
 68
     0
279
    -2
289
     1
 69
     0
  0
VISUALSTYLE
  5
25
102
{ACAD_REACTORS
330
26
102
}
330
26
100
AcDbVisualStyle
  2
2dWireframe
 70
     4
 71
     0
 72
     2
 73
     0
 90
        0
 40
-0.6
 41
-30.0
 62
     5
 63
     7
 74
     1
 91
        4
 64
     7
 65
   257
 75
     1
175
     1
 42
1.0
 92
        0
 66
   257
 43
1.0
 76
     1
 77
     6
 78
     2
 67
     7
 79
     5
170
     0
171
     0
290
     0
174
     0
 93
        1
 44
0.0
173
     0
291
     0
 45
0.0
1001
ACAD
1000
AcDbSavedByObjectVersion
1070
     0
  0
VISUALSTYLE
  5
C2
102
{ACAD_REACTORS
330
26
102
}
330
26
100
AcDbVisualStyle
  2
3D Hidden
 70
     6
 71
     1
 72
     2
 73
     2
 90
        0
 40
-0.6
 41
-30.0
 62
     5
 63
     7
 74
     2
 91
        2
 64
     7
 65
   257
 75
     2
175
     1
 42
40.0
 92
        0
 66
   257
 43
1.0
 76
     1
 77
     6
 78
     2
 67
     7
 79
     3
170
     0
171
     0
290
     0
174
     0
 93
        1
 44
0.0
173
     0
291
     0
 45
0.0
1001
ACAD
1000
AcDbSavedByObjectVersion
1070
     0
  0
VISUALSTYLE
  5
39
102
{ACAD_REACTORS
330
26
102
}
330
26
100
AcDbVisualStyle
  2
3dWireframe
 70
     5
 71
     0
 72
     2
 73
     0
 90
        0
 40
-0.6
 41
-30.0
 62
     5
 63
     7
 74
     1
 91
        4
 64
     7
 65
   257
 75
     1
175
     1
 42
1.0
 92
        0
 66
   257
 43
1.0
 76
     1
 77
     6
 78
     2
 67
     7
 79
     5
170
     0
171
     0
290
     0
174
     0
 93
        1
 44
0.0
173
     0
291
     0
 45
0.0
1001
ACAD
1000
AcDbSavedByObjectVersion
1070
     0
  0
VISUALSTYLE
  5
C1
102
{ACAD_REACTORS
330
26
102
}
330
26
100
AcDbVisualStyle
  2
Basic
 70
     7
 71
     1
 72
     0
 73
     1
 90
        0
 40
-0.6
 41
-30.0
 62
     5
 63
     7
 74
     0
 91
        4
 64
     7
 65
   257
 75
     1
175
     1
 42
1.0
 92
        8
 66
     7
 43
1.0
 76
     1
 77
     6
 78
     2
 67
     7
 79
     5
170
     0
171
     0
290
     0
174
     0
 93
        1
 44
0.0
173
     0
291
     1
 45
0.0
1001
ACAD
1000
AcDbSavedByObjectVersion
1070
     0
  0
VISUALSTYLE
  5
C5
102
{ACAD_REACTORS
330
26
102
}
330
26
100
AcDbVisualStyle
  2
Brighten
 70
    12
 71
     2
 72
     2
 73
     0
 90
        0
 40
-0.6
 41
-30.0
 62
     5
 63
     7
 74
     1
 91
        4
 64
     7
 65
   257
 75
     1
175
     1
 42
1.0
 92
        8
 66
     7
 43
1.0
 76
     1
 77
     6
 78
     2
 67
     7
 79
     5
170
     0
171
     0
290
     0
174
     0
 93
        1
 44
50.0
173
     0
291
     1
 45
0.0
1001
ACAD
1000
AcDbSavedByObjectVersion
1070
     0
  0
VISUALSTYLE
  5
C9
102
{ACAD_REACTORS
330
26
102
}
330
26
100
AcDbVisualStyle
  2
ColorChange
 70
    16
 71
     2
 72
     2
 73
     3
 90
        0
 40
-0.6
 41
-30.0
 62
     5
 63
     8
 74
     1
 91
        4
 64
     7
 65
   257
 75
     1
175
     1
 42
1.0
 92
        8
 66
     8
 43
1.0
 76
     1
 77
     6
 78
     2
 67
     7
 79
     5
170
     0
171
     0
290
     0
174
     0
 93
        1
 44
0.0
173
     0
291
     1
 45
0.0
1001
ACAD
1000
AcDbSavedByObjectVersion
1070
     0
  0
VISUALSTYLE
  5
C3
102
{ACAD_REACTORS
330
26
102
}
330
26
100
AcDbVisualStyle
  2
Conceptual
 70
     9
 71
     3
 72
     2
 73
     0
 90
        0
 40
-0.6
 41
-30.0
 62
     5
 63
     7
 74
     2
 91
        2
 64
     7
 65
   257
 75
     1
175
     1
 42
40.0
 92
        8
 66
     7
 43
1.0
 76
     1
 77
     6
 78
     2
 67
     7
 79
     3
170
     0
171
     0
290
     0
174
     0
 93
        1
 44
0.0
173
     0
291
     0
 45
0.0
1001
ACAD
1000
AcDbSavedByObjectVersion
1070
     0
  0
VISUALSTYLE
  5
C4
102
{ACAD_REACTORS
330
26
102
}
330
26
100
AcDbVisualStyle
  2
Dim
 70
    11
 71
     2
 72
     2
 73
     0
 90
        0
 40
-0.6
 41
-30.0
 62
     5
 63
     7
 74
     1
 91
        4
 64
     7
 65
   257
 75
     1
175
     1
 42
1.0
 92
        8
 66
     7
 43
1.0
 76
     1
 77
     6
 78
     2
 67
     7
 79
     5
170
     0
171
     0
290
     0
174
     0
 93
        1
 44
-50.0
173
     0
291
     1
 45
0.0
1001
ACAD
1000
AcDbSavedByObjectVersion
1070
     0
  0
VISUALSTYLE
  5
C8
102
{ACAD_REACTORS
330
26
102
}
330
26
100
AcDbVisualStyle
  2
Facepattern
 70
    15
 71
     2
 72
     2
 73
     0
 90
        0
 40
-0.6
 41
-30.0
 62
     5
 63
     7
 74
     1
 91
        4
 64
     7
 65
   257
 75
     1
175
     1
 42
1.0
 92
        8
 66
     7
 43
1.0
 76
     1
 77
     6
 78
     2
 67
     7
 79
     5
170
     0
171
     0
290
     0
174
     0
 93
        1
 44
0.0
173
     0
291
     1
 45
0.0
1001
ACAD
1000
AcDbSavedByObjectVersion
1070
     0
  0
VISUALSTYLE
  5
BD
102
{ACAD_REACTORS
330
26
102
}
330
26
100
AcDbVisualStyle
  2
Flat
 70
     0
 71
     2
 72
     1
 73
     1
 90
        2
 40
-0.6
 41
30.0
 62
     5
 63
     7
 74
     0
 91
        4
 64
     7
 65
   257
 75
     1
175
     1
 42
1.0
 92
        8
 66
     7
 43
1.0
 76
     1
 77
     6
 78
     2
 67
     7
 79
     5
170
     0
171
     0
290
     0
174
     0
 93
       13
 44
0.0
173
     0
291
     1
 45
0.0
1001
ACAD
1000
AcDbSavedByObjectVersion
1070
     0
  0
VISUALSTYLE
  5
BE
102
{ACAD_REACTORS
330
26
102
}
330
26
100
AcDbVisualStyle
  2
FlatWithEdges
 70
     1
 71
     2
 72
     1
 73
     1
 90
        2
 40
-0.6
 41
30.0
 62
     5
 63
     7
 74
     1
 91
        4
 64
     7
 65
   257
 75
     1
175
     1
 42
1.0
 92
        0
 66
   257
 43
1.0
 76
     1
 77
     6
 78
     2
 67
     7
 79
     5
170
     0
171
     0
290
     0
174
     0
 93
       13
 44
0.0
173
     0
291
     1
 45
0.0
1001
ACAD
1000
AcDbSavedByObjectVersion
1070
     0
  0
VISUALSTYLE
  5
BF
102
{ACAD_REACTORS
330
26
102
}
330
26
100
AcDbVisualStyle
  2
Gouraud
 70
     2
 71
     2
 72
     2
 73
     1
 90
        2
 40
-0.6
 41
30.0
 62
     5
 63
     7
 74
     0
 91
        4
 64
     7
 65
   257
 75
     1
175
     1
 42
1.0
 92
        0
 66
     7
 43
1.0
 76
     1
 77
     6
 78
     2
 67
     7
 79
     5
170
     0
171
     0
290
     0
174
     0
 93
       13
 44
0.0
173
     0
291
     1
 45
0.0
1001
ACAD
1000
AcDbSavedByObjectVersion
1070
     0
  0
VISUALSTYLE
  5
C0
102
{ACAD_REACTORS
330
26
102
}
330
26
100
AcDbVisualStyle
  2
GouraudWithEdges
 70
     3
 71
     2
 72
     2
 73
     1
 90
        2
 40
-0.6
 41
30.0
 62
     5
 63
     7
 74
     1
 91
        4
 64
     7
 65
   257
 75
     1
175
     1
 42
1.0
 92
        0
 66
   257
 43
1.0
 76
     1
 77
     6
 78
     2
 67
     7
 79
     5
170
     0
171
     0
290
     0
174
     0
 93
       13
 44
0.0
173
     0
291
     1
 45
0.0
1001
ACAD
1000
AcDbSavedByObjectVersion
1070
     0
  0
VISUALSTYLE
  5
C7
102
{ACAD_REACTORS
330
26
102
}
330
26
100
AcDbVisualStyle
  2
Linepattern
 70
    14
 71
     2
 72
     2
 73
     0
 90
        0
 40
-0.6
 41
-30.0
 62
     5
 63
     7
 74
     1
 91
        4
 64
     7
 65
   257
 75
     7
175
     7
 42
1.0
 92
        8
 66
     7
 43
1.0
 76
     1
 77
     6
 78
     2
 67
     7
 79
     5
170
     0
171
     0
290
     0
174
     0
 93
        1
 44
0.0
173
     0
291
     1
 45
0.0
1001
ACAD
1000
AcDbSavedByObjectVersion
1070
     0
  0
VISUALSTYLE
  5
38
102
{ACAD_REACTORS
330
26
102
}
330
26
100
AcDbVisualStyle
  2
Realistic
 70
     8
 71
     2
 72
     2
 73
     0
 90
        0
 40
-0.6
 41
-30.0
 62
     5
 63
     7
 74
     1
 91
        0
 64
     7
 65
   257
 75
     1
175
     1
 42
1.0
 92
        8
 66
     8
 43
1.0
 76
     1
 77
     6
 78
     2
 67
     7
 79
     5
170
     0
171
     0
290
     0
174
     0
 93
       13
 44
0.0
173
     0
291
     0
 45
0.0
1001
ACAD
1000
AcDbSavedByObjectVersion
1070
     0
  0
VISUALSTYLE
  5
C6
102
{ACAD_REACTORS
330
26
102
}
330
26
100
AcDbVisualStyle
  2
Thicken
 70
    13
 71
     2
 72
     2
 73
     0
 90
        0
 40
-0.6
 41
-30.0
 62
     5
 63
     7
 74
     1
 91
        4
 64
     7
 65
   257
 75
     1
175
     1
 42
1.0
 92
       12
 66
     7
 43
1.0
 76
     1
 77
     6
 78
     2
 67
     7
 79
     5
170
     0
171
     0
290
     0
174
     0
 93
        1
 44
0.0
173
     0
291
     1
 45
0.0
1001
ACAD
1000
AcDbSavedByObjectVersion
1070
     0
  0
DICTIONARYVAR
  5
B7
102
{ACAD_REACTORS
330
B6
102
}
330
B6
100
DictionaryVariables
280
     0
  1
STANDARD
  0
DICTIONARYVAR
  5
BB
102
{ACAD_REACTORS
330
B6
102
}
330
B6
100
DictionaryVariables
280
     0
  1
1
  0
DICTIONARYVAR
  5
BA
102
{ACAD_REACTORS
330
B6
102
}
330
B6
100
DictionaryVariables
280
     0
  1
1
  0
DICTIONARYVAR
  5
B9
102
{ACAD_REACTORS
330
B6
102
}
330
B6
100
DictionaryVariables
280
     0
  1
0
  0
DICTIONARYVAR
  5
B8
102
{ACAD_REACTORS
330
B6
102
}
330
B6
100
DictionaryVariables
280
     0
  1
127
  0
DICTIONARY
  5
D5
330
31
100
AcDbDictionary
280
     1
281
     1
  3
ACAD_XREC_ROUNDTRIP
360
D6
  0
DICTIONARY
  5
D3
330
30
100
AcDbDictionary
280
     1
281
     1
  3
ACAD_XREC_ROUNDTRIP
360
D4
  0
DICTIONARY
  5
CD
330
A
100
AcDbDictionary
280
     1
281
     1
  3
ACAD_XREC_ROUNDTRIP
360
CE
  0
XRECORD
  5
D6
102
{ACAD_REACTORS
330
D5
102
}
330
D5
100
AcDbXrecord
280
     1
102
MATERIAL
148
0.0
149
0.0
149
0.0
 93
        0
 94
       63
282
     0
 72
     1
 77
     1
171
     1
175
     1
179
     1
273
     0
  0
XRECORD
  5
D4
102
{ACAD_REACTORS
330
D3
102
}
330
D3
100
AcDbXrecord
280
     1
102
MATERIAL
148
0.0
149
0.0
149
0.0
 93
        0
 94
       63
282
     0
 72
     1
 77
     1
171
     1
175
     1
179
     1
273
     0
  0
XRECORD
  5
CE
102
{ACAD_REACTORS
330
CD
102
}
330
CD
100
AcDbXrecord
280
     1
102
MATERIAL
148
0.0
149
0.0
149
0.0
 93
        0
 94
       63
282
     0
 72
     1
 77
     1
171
     1
175
     1
179
     1
273
     0
  0
ENDSEC
  0
EOF
