  0
SECTION
  2
HEADER
  9
$ACADVER
  1
AC1021
  9
$ACADMAINTVER
 70
     1
  9
$DWGCODEPAGE
  3
ANSI_1252
  9
$LASTSAVEDBY
  1
abianchi
  9
$INSBASE
 10
16195.9950481666
 20
-3087.359203160661
 30
0.0
  9
$EXTMIN
 10
16181.50000929724
 20
-4395.576814622467
 30
0.0
  9
$EXTMAX
 10
17896.50000929724
 20
-3014.532029328315
 30
0.0
  9
$LIMMIN
 10
0.0
 20
0.0
  9
$LIMMAX
 10
431.8
 20
279.4
  9
$ORTHOMODE
 70
     1
  9
$REGENMODE
 70
     1
  9
$FILLMODE
 70
     1
  9
$QTEXTMODE
 70
     0
  9
$MIRRTEXT
 70
     1
  9
$LTSCALE
 40
1.0
  9
$ATTMODE
 70
     1
  9
$TEXTSIZE
 40
0.2
  9
$TRACEWID
 40
0.05
  9
$TEXTSTYLE
  7
Standard
  9
$CLAYER
  8
0
  9
$CELTYPE
  6
ByLayer
  9
$CECOLOR
 62
   256
  9
$CELTSCALE
 40
25.4
  9
$DISPSILH
 70
     0
  9
$DIMSCALE
 40
1.0
  9
$DIMASZ
 40
50.0
  9
$DIMEXO
 40
0.0625
  9
$DIMDLI
 40
0.38
  9
$DIMRND
 40
0.0
  9
$DIMDLE
 40
0.0
  9
$DIMEXE
 40
0.18
  9
$DIMTP
 40
0.0
  9
$DIMTM
 40
0.0
  9
$DIMTXT
 40
65.0
  9
$DIMCEN
 40
0.09
  9
$DIMTSZ
 40
0.0
  9
$DIMTOL
 70
     0
  9
$DIMLIM
 70
     0
  9
$DIMTIH
 70
     0
  9
$DIMTOH
 70
     0
  9
$DIMSE1
 70
     0
  9
$DIMSE2
 70
     0
  9
$DIMTAD
 70
     0
  9
$DIMZIN
 70
     0
  9
$DIMBLK
  1

  9
$DIMASO
 70
     1
  9
$DIMSHO
 70
     1
  9
$DIMPOST
  1
mm
  9
$DIMAPOST
  1

  9
$DIMALT
 70
     0
  9
$DIMALTD
 70
     2
  9
$DIMALTF
 40
25.4
  9
$DIMLFAC
 40
1.0
  9
$DIMTOFL
 70
     0
  9
$DIMTVP
 40
0.0
  9
$DIMTIX
 70
     0
  9
$DIMSOXD
 70
     0
  9
$DIMSAH
 70
     0
  9
$DIMBLK1
  1

  9
$DIMBLK2
  1

  9
$DIMSTYLE
  2
Standard
  9
$DIMCLRD
 70
     0
  9
$DIMCLRE
 70
     0
  9
$DIMCLRT
 70
     0
  9
$DIMTFAC
 40
1.0
  9
$DIMGAP
 40
0.09
  9
$DIMJUST
 70
     0
  9
$DIMSD1
 70
     0
  9
$DIMSD2
 70
     0
  9
$DIMTOLJ
 70
     1
  9
$DIMTZIN
 70
     0
  9
$DIMALTZ
 70
     0
  9
$DIMALTTZ
 70
     0
  9
$DIMUPT
 70
     0
  9
$DIMDEC
 70
     0
  9
$DIMTDEC
 70
     0
  9
$DIMALTU
 70
     2
  9
$DIMALTTD
 70
     2
  9
$DIMTXSTY
  7
Standard
  9
$DIMAUNIT
 70
     0
  9
$DIMADEC
 70
     0
  9
$DIMALTRND
 40
0.0
  9
$DIMAZIN
 70
     0
  9
$DIMDSEP
 70
    46
  9
$DIMATFIT
 70
     3
  9
$DIMFRAC
 70
     0
  9
$DIMLDRBLK
  1

  9
$DIMLUNIT
 70
     2
  9
$DIMLWD
 70
    -2
  9
$DIMLWE
 70
    -2
  9
$DIMTMOVE
 70
     0
  9
$DIMFXL
 40
1.0
  9
$DIMFXLON
 70
     0
  9
$DIMJOGANG
 40
0.7853981633974483
  9
$DIMTFILL
 70
     0
  9
$DIMTFILLCLR
 70
     0
  9
$DIMARCSYM
 70
     0
  9
$DIMLTYPE
  6

  9
$DIMLTEX1
  6

  9
$DIMLTEX2
  6

  9
$LUNITS
 70
     2
  9
$LUPREC
 70
     4
  9
$SKETCHINC
 40
0.1
  9
$FILLETRAD
 40
290.0
  9
$AUNITS
 70
     0
  9
$AUPREC
 70
     0
  9
$MENU
  1
.
  9
$ELEVATION
 40
0.0
  9
$PELEVATION
 40
0.0
  9
$THICKNESS
 40
0.0
  9
$LIMCHECK
 70
     0
  9
$CHAMFERA
 40
0.5
  9
$CHAMFERB
 40
0.5
  9
$CHAMFERC
 40
1.0
  9
$CHAMFERD
 40
0.0
  9
$SKPOLY
 70
     0
  9
$TDCREATE
 40
2454174.748590255
  9
$TDUCREATE
 40
2454174.706923588
  9
$TDUPDATE
 40
2455614.528740232
  9
$TDUUPDATE
 40
2455614.487073565
  9
$TDINDWG
 40
1.2527187500
  9
$TDUSRTIMER
 40
1.2527178472
  9
$USRTIMER
 70
     1
  9
$ANGBASE
 50
0.0
  9
$ANGDIR
 70
     0
  9
$PDMODE
 70
     0
  9
$PDSIZE
 40
0.0
  9
$PLINEWID
 40
0.0
  9
$SPLFRAME
 70
     0
  9
$SPLINETYPE
 70
     6
  9
$SPLINESEGS
 70
     8
  9
$HANDSEED
  5
129
  9
$SURFTAB1
 70
     6
  9
$SURFTAB2
 70
     6
  9
$SURFTYPE
 70
     6
  9
$SURFU
 70
     6
  9
$SURFV
 70
     6
  9
$UCSBASE
  2

  9
$UCSNAME
  2

  9
$UCSORG
 10
0.0
 20
0.0
 30
0.0
  9
$UCSXDIR
 10
1.0
 20
0.0
 30
0.0
  9
$UCSYDIR
 10
0.0
 20
1.0
 30
0.0
  9
$UCSORTHOREF
  2

  9
$UCSORTHOVIEW
 70
     0
  9
$UCSORGTOP
 10
0.0
 20
0.0
 30
0.0
  9
$UCSORGBOTTOM
 10
0.0
 20
0.0
 30
0.0
  9
$UCSORGLEFT
 10
0.0
 20
0.0
 30
0.0
  9
$UCSORGRIGHT
 10
0.0
 20
0.0
 30
0.0
  9
$UCSORGFRONT
 10
0.0
 20
0.0
 30
0.0
  9
$UCSORGBACK
 10
0.0
 20
0.0
 30
0.0
  9
$PUCSBASE
  2

  9
$PUCSNAME
  2

  9
$PUCSORG
 10
0.0
 20
0.0
 30
0.0
  9
$PUCSXDIR
 10
1.0
 20
0.0
 30
0.0
  9
$PUCSYDIR
 10
0.0
 20
1.0
 30
0.0
  9
$PUCSORTHOREF
  2

  9
$PUCSORTHOVIEW
 70
     0
  9
$PUCSORGTOP
 10
0.0
 20
0.0
 30
0.0
  9
$PUCSORGBOTTOM
 10
0.0
 20
0.0
 30
0.0
  9
$PUCSORGLEFT
 10
0.0
 20
0.0
 30
0.0
  9
$PUCSORGRIGHT
 10
0.0
 20
0.0
 30
0.0
  9
$PUCSORGFRONT
 10
0.0
 20
0.0
 30
0.0
  9
$PUCSORGBACK
 10
0.0
 20
0.0
 30
0.0
  9
$USERI1
 70
     0
  9
$USERI2
 70
     0
  9
$USERI3
 70
     0
  9
$USERI4
 70
     0
  9
$USERI5
 70
     0
  9
$USERR1
 40
0.0
  9
$USERR2
 40
0.0
  9
$USERR3
 40
0.0
  9
$USERR4
 40
0.0
  9
$USERR5
 40
0.0
  9
$WORLDVIEW
 70
     1
  9
$SHADEDGE
 70
     3
  9
$SHADEDIF
 70
    70
  9
$TILEMODE
 70
     1
  9
$MAXACTVP
 70
    64
  9
$PINSBASE
 10
0.0
 20
0.0
 30
0.0
  9
$PLIMCHECK
 70
     0
  9
$PEXTMIN
 10
0.0
 20
0.0
 30
0.0
  9
$PEXTMAX
 10
431.8
 20
279.4
 30
0.0
  9
$PLIMMIN
 10
0.0
 20
0.0
  9
$PLIMMAX
 10
12.0
 20
9.0
  9
$UNITMODE
 70
     0
  9
$VISRETAIN
 70
     1
  9
$PLINEGEN
 70
     0
  9
$PSLTSCALE
 70
     1
  9
$TREEDEPTH
 70
  3020
  9
$CMLSTYLE
  2
Standard
  9
$CMLJUST
 70
     0
  9
$CMLSCALE
 40
1.0
  9
$PROXYGRAPHICS
 70
     1
  9
$MEASUREMENT
 70
     1
  9
$CELWEIGHT
370
    -1
  9
$ENDCAPS
280
     0
  9
$JOINSTYLE
280
     0
  9
$LWDISPLAY
290
     0
  9
$INSUNITS
 70
     4
  9
$HYPERLINKBASE
  1

  9
$STYLESHEET
  1

  9
$XEDIT
290
     1
  9
$CEPSNTYPE
380
     0
  9
$PSTYLEMODE
290
     0
  9
$FINGERPRINTGUID
  2
{905582CB-4C9A-4A8D-AC14-53782245F1C1}
  9
$VERSIONGUID
  2
{912F7FFB-A928-42D0-976E-DE2D8FF8B844}
  9
$EXTNAMES
290
     1
  9
$PSVPSCALE
 40
0.0
  9
$OLESTARTUP
290
     0
  9
$SORTENTS
280
   127
  9
$INDEXCTL
280
     0
  9
$HIDETEXT
280
     1
  9
$XCLIPFRAME
290
     0
  9
$HALOGAP
280
     0
  9
$OBSCOLOR
 70
   257
  9
$OBSLTYPE
280
     0
  9
$INTERSECTIONDISPLAY
280
     0
  9
$INTERSECTIONCOLOR
 70
   257
  9
$DIMASSOC
280
     1
  9
$PROJECTNAME
  1

  9
$CAMERADISPLAY
290
     0
  9
$LENSLENGTH
 40
50.0
  9
$CAMERAHEIGHT
 40
0.0
  9
$STEPSPERSEC
 40
2.0
  9
$STEPSIZE
 40
6.0
  9
$3DDWFPREC
 40
2.0
  9
$PSOLWIDTH
 40
0.25
  9
$PSOLHEIGHT
 40
4.0
  9
$LOFTANG1
 40
1.570796326794896
  9
$LOFTANG2
 40
1.570796326794896
  9
$LOFTMAG1
 40
0.0
  9
$LOFTMAG2
 40
0.0
  9
$LOFTPARAM
 70
     7
  9
$LOFTNORMALS
280
     1
  9
$LATITUDE
 40
37.795
  9
$LONGITUDE
 40
-122.394
  9
$NORTHDIRECTION
 40
0.0
  9
$TIMEZONE
 70
 -8000
  9
$LIGHTGLYPHDISPLAY
280
     1
  9
$TILEMODELIGHTSYNCH
280
     1
  9
$CMATERIAL
347
2F
  9
$SOLIDHIST
280
     1
  9
$SHOWHIST
280
     1
  9
$DWFFRAME
280
     2
  9
$DGNFRAME
280
     0
  9
$REALWORLDSCALE
290
     1
  9
$INTERFERECOLOR
 62
     1
  9
$INTERFEREOBJVS
345
35
  9
$INTERFEREVPVS
346
36
  9
$CSHADOW
280
     0
  9
$SHADOWPLANELOCATION
 40
0.0
  0
ENDSEC
  0
SECTION
  2
CLASSES
  0
CLASS
  1
ACDBDICTIONARYWDFLT
  2
AcDbDictionaryWithDefault
  3
ObjectDBX Classes
 90
        0
 91
        1
280
     0
281
     0
  0
CLASS
  1
TABLESTYLE
  2
AcDbTableStyle
  3
ObjectDBX Classes
 90
     4095
 91
        1
280
     0
281
     0
  0
CLASS
  1
DICTIONARYVAR
  2
AcDbDictionaryVar
  3
ObjectDBX Classes
 90
        0
 91
        5
280
     0
281
     0
  0
CLASS
  1
SPATIAL_FILTER
  2
AcDbSpatialFilter
  3
ObjectDBX Classes
 90
        0
 91
        0
280
     0
281
     0
  0
CLASS
  1
MATERIAL
  2
AcDbMaterial
  3
ObjectDBX Classes
 90
     1024
 91
        3
280
     0
281
     0
  0
CLASS
  1
VISUALSTYLE
  2
AcDbVisualStyle
  3
ObjectDBX Classes
 90
     4095
 91
       16
280
     0
281
     0
  0
CLASS
  1
SORTENTSTABLE
  2
AcDbSortentsTable
  3
ObjectDBX Classes
 90
        0
 91
        2
280
     0
281
     0
  0
ENDSEC
  0
SECTION
  2
TABLES
  0
TABLE
  2
VPORT
  5
23
102
{ACAD_XDICTIONARY
360
27
102
}
330
0
100
AcDbSymbolTable
 70
     1
  0
VPORT
  5
24
330
23
100
AcDbSymbolTableRecord
100
AcDbViewportTableRecord
  2
*Active
 70
     0
 10
0.0
 20
0.0
 11
1.0
 21
1.0
 12
17014.95792472599
 22
-3184.684089624675
 13
0.0
 23
0.0
 14
0.5
 24
0.5
 15
0.5
 25
0.5
 16
0.0
 26
0.0
 36
1.0
 17
0.0
 27
0.0
 37
0.0
 40
1050.612881084467
 41
2.448275862068965
 42
50.0
 43
0.0
 44
0.0
 50
0.0
 51
0.0
 71
     0
 72
   100
 73
     1
 74
     3
 75
     1
 76
     0
 77
     0
 78
     0
281
     0
 65
     1
110
0.0
120
0.0
130
0.0
111
1.0
121
0.0
131
0.0
112
0.0
122
1.0
132
0.0
 79
     0
146
0.0
348
25
 60
     3
 61
     5
292
     1
282
     1
141
0.0
142
0.0
 63
   250
421
  3355443
  0
ENDTAB
  0
TABLE
  2
LTYPE
  5
1E
330
0
100
AcDbSymbolTable
 70
     1
  0
LTYPE
  5
1F
330
1E
100
AcDbSymbolTableRecord
100
AcDbLinetypeTableRecord
  2
ByBlock
 70
     0
  3

 72
    65
 73
     0
 40
0.0
  0
LTYPE
  5
20
330
1E
100
AcDbSymbolTableRecord
100
AcDbLinetypeTableRecord
  2
ByLayer
 70
     0
  3

 72
    65
 73
     0
 40
0.0
  0
LTYPE
  5
C
330
1E
100
AcDbSymbolTableRecord
100
AcDbLinetypeTableRecord
  2
Continuous
 70
     0
  3
Solid line
 72
    65
 73
     0
 40
0.0
  0
ENDTAB
  0
TABLE
  2
LAYER
  5
15
102
{ACAD_XDICTIONARY
360
16
102
}
330
0
100
AcDbSymbolTable
 70
     1
  0
LAYER
  5
6
330
15
100
AcDbSymbolTableRecord
100
AcDbLayerTableRecord
  2
0
 70
     0
 62
     7
  6
Continuous
370
    -3
390
7
347
A
  0
ENDTAB
  0
TABLE
  2
STYLE
  5
1B
330
0
100
AcDbSymbolTable
 70
     1
  0
STYLE
  5
1C
330
1B
100
AcDbSymbolTableRecord
100
AcDbTextStyleTableRecord
  2
Standard
 70
     0
 40
0.0
 41
1.0
 50
0.0
 71
     0
 42
0.2
  3
ARIAL.TTF
  4

1001
ACAD
1000
Arial
1071
       34
  0
ENDTAB
  0
TABLE
  2
VIEW
  5
21
330
0
100
AcDbSymbolTable
 70
     0
  0
ENDTAB
  0
TABLE
  2
UCS
  5
22
330
0
100
AcDbSymbolTable
 70
     0
  0
ENDTAB
  0
TABLE
  2
APPID
  5
28
330
0
100
AcDbSymbolTable
 70
     2
  0
APPID
  5
1A
330
28
100
AcDbSymbolTableRecord
100
AcDbRegAppTableRecord
  2
ACAD
 70
     0
  0
APPID
  5
10
330
28
100
AcDbSymbolTableRecord
100
AcDbRegAppTableRecord
  2
ACAD_PSEXT
 70
     0
  0
ENDTAB
  0
TABLE
  2
DIMSTYLE
  5
29
330
0
100
AcDbSymbolTable
 70
     1
100
AcDbDimStyleTable
 71
     1
340
2A
  0
DIMSTYLE
105
2A
330
29
100
AcDbSymbolTableRecord
100
AcDbDimStyleTableRecord
  2
Standard
 70
     0
  3
mm
 41
50.0
 73
     0
 74
     0
140
65.0
271
     0
272
     0
340
1C
  0
ENDTAB
  0
TABLE
  2
BLOCK_RECORD
  5
1
330
0
100
AcDbSymbolTable
 70
     1
  0
BLOCK_RECORD
  5
2
102
{ACAD_XDICTIONARY
360
3
102
}
330
1
100
AcDbSymbolTableRecord
100
AcDbBlockTableRecord
  2
*Model_Space
340
E
 70
     0
280
     1
281
     0
  0
BLOCK_RECORD
  5
11
330
1
100
AcDbSymbolTableRecord
100
AcDbBlockTableRecord
  2
*Paper_Space
340
14
 70
     0
280
     1
281
     0
  0
BLOCK_RECORD
  5
38
102
{ACAD_XDICTIONARY
360
39
102
}
330
1
100
AcDbSymbolTableRecord
100
AcDbBlockTableRecord
  2
A$C5B8F1D94
340
0
 70
     4
280
     1
281
     0
  0
ENDTAB
  0
ENDSEC
  0
SECTION
  2
BLOCKS
  0
BLOCK
  5
5
330
2
100
AcDbEntity
  8
0
100
AcDbBlockBegin
  2
*Model_Space
 70
     0
 10
0.0
 20
0.0
 30
0.0
  3
*Model_Space
  1

  0
ENDBLK
  5
D
330
2
100
AcDbEntity
  8
0
100
AcDbBlockEnd
  0
BLOCK
  5
12
330
11
100
AcDbEntity
 67
     1
  8
0
100
AcDbBlockBegin
  2
*Paper_Space
 70
     0
 10
0.0
 20
0.0
 30
0.0
  3
*Paper_Space
  1

  0
ENDBLK
  5
13
330
11
100
AcDbEntity
 67
     1
  8
0
100
AcDbBlockEnd
  0
BLOCK
  5
3B
330
38
100
AcDbEntity
  8
0
 48
25.4
370
     9
100
AcDbBlockBegin
  2
A$C5B8F1D94
 70
     0
 10
0.0
 20
0.0
 30
0.0
  3
A$C5B8F1D94
  1

  0
LINE
  5
3C
330
38
100
AcDbEntity
  8
0
  6
Continuous
 62
     7
 48
25.4
100
AcDbLine
 10
1396.721852884144
 20
920.2241967653392
 30
0.0
 11
1396.721852884144
 21
810.0130799733397
 31
0.0
  0
ELLIPSE
  5
3D
330
38
100
AcDbEntity
  8
0
  6
Continuous
 62
     7
 48
25.4
100
AcDbEllipse
 10
1346.725437524143
 20
810.0736465233403
 30
0.0
 11
18.52185746727226
 21
48.8885558937701
 31
0.0
210
0.0
220
0.0
230
0.9999999999999998
 40
0.9505610510608139
 41
3.52085988896446
 42
5.056892615321702
  0
ELLIPSE
  5
3E
330
38
100
AcDbEntity
  8
0
  6
Continuous
 62
     7
 48
25.4
100
AcDbEllipse
 10
1346.725437524143
 20
1056.20794715734
 30
0.0
 11
-18.52185746481152
 21
48.8885558920673
 31
0.0
210
0.0
220
0.0
230
0.9999999999999998
 40
0.9505610511125107
 41
4.367885345461661
 42
5.903918071857335
  0
LINE
  5
3F
330
38
100
AcDbEntity
  8
0
  6
Continuous
 62
     7
 48
25.4
100
AcDbLine
 10
1396.721852884144
 20
1056.268513705339
 30
0.0
 11
1396.721852884144
 21
946.0573969153392
 31
0.0
  0
LINE
  5
40
330
38
100
AcDbEntity
  8
0
  6
Continuous
 62
     7
 48
25.4
100
AcDbLine
 10
15.0000092972441
 20
1298.140796839339
 30
0.0
 11
15.0000092972441
 21
568.1407968393378
 31
0.0
  0
LINE
  5
41
330
38
100
AcDbEntity
  8
0
  6
Continuous
 62
     7
 48
25.4
100
AcDbLine
 10
1705.000009297244
 20
1308.140796839339
 30
0.0
 11
25.00000929724411
 21
1308.140796839339
 31
0.0
  0
LINE
  5
42
330
38
100
AcDbEntity
  8
0
  6
Continuous
 62
     7
 48
25.4
100
AcDbLine
 10
1715.000009297244
 20
568.1407968393378
 30
0.0
 11
1715.000009297244
 21
1298.140796839339
 31
0.0
  0
LINE
  5
43
330
38
100
AcDbEntity
  8
0
  6
Continuous
 62
     7
 48
25.4
100
AcDbLine
 10
25.00000929724411
 20
558.1407968393376
 30
0.0
 11
162.000009297244
 21
558.1407968393376
 31
0.0
  0
LINE
  5
44
330
38
100
AcDbEntity
  8
0
  6
Continuous
 62
     7
 48
25.4
100
AcDbLine
 10
598.0000092972439
 20
558.1407968393376
 30
0.0
 11
1705.000009297244
 21
558.1407968393376
 31
0.0
  0
ARC
  5
45
330
38
100
AcDbEntity
  8
0
  6
Continuous
 62
     7
 48
25.4
100
AcDbCircle
 10
25.00000929724411
 20
1298.140796839339
 30
0.0
 40
10.00000000000001
100
AcDbArc
 50
90.0
 51
180.0
  0
ARC
  5
46
330
38
100
AcDbEntity
  8
0
  6
Continuous
 62
     7
 48
25.4
100
AcDbCircle
 10
1705.000009297244
 20
1298.140796839339
 30
0.0
 40
10.00000000000001
100
AcDbArc
 50
0.0
 51
90.0
  0
ARC
  5
47
330
38
100
AcDbEntity
  8
0
  6
Continuous
 62
     7
 48
25.4
100
AcDbCircle
 10
1705.000009297244
 20
568.1407968393378
 30
0.0
 40
9.999999999999953
100
AcDbArc
 50
270.0
 51
0.0
  0
ARC
  5
48
330
38
100
AcDbEntity
  8
0
  6
Continuous
 62
     7
 48
25.4
100
AcDbCircle
 10
1376.721852884144
 20
933.1407968393396
 30
0.0
 40
19.99999999999948
100
AcDbArc
 50
319.7720651418712
 51
40.22793485812885
  0
ARC
  5
49
330
38
100
AcDbEntity
  8
0
  6
Continuous
 62
     7
 48
25.4
100
AcDbCircle
 10
1376.721852884144
 20
933.1407968393396
 30
0.0
 40
19.99999999999997
100
AcDbArc
 50
40.22793485812885
 51
319.7720651418712
  0
LINE
  5
4A
330
38
100
AcDbEntity
  8
0
  6
Continuous
 62
     7
 48
25.4
100
AcDbLine
 10
598.0000092972439
 20
618.1407968393378
 30
0.0
 11
1482.867191127236
 21
618.1407968393378
 31
0.0
  0
LINE
  5
4B
330
38
100
AcDbEntity
  8
0
  6
Continuous
 62
     7
 48
25.4
100
AcDbLine
 10
1662.867191127236
 20
804.1329970433416
 30
0.0
 11
1662.867191127236
 21
1062.148596635339
 31
0.0
  0
ARC
  5
4C
330
38
100
AcDbEntity
  8
0
  6
Continuous
 62
     7
 48
25.4
100
AcDbCircle
 10
1472.216894833607
 20
808.5444942114534
 30
0.0
 40
190.7013287423932
100
AcDbArc
 50
273.2015229775278
 51
358.6744574896799
  0
ARC
  5
4D
330
38
100
AcDbEntity
  8
0
  6
Continuous
 62
     7
 48
25.4
100
AcDbCircle
 10
1472.216894833607
 20
1057.737099467227
 30
0.0
 40
190.7013287423921
100
AcDbArc
 50
1.32554251031995
 51
86.79847702247217
  0
LINE
  5
4E
330
38
100
AcDbEntity
  8
0
  6
Continuous
 62
     7
 48
25.4
100
AcDbLine
 10
1482.867191127236
 20
1248.140796839339
 30
0.0
 11
339.4115520292362
 21
1248.140796839339
 31
0.0
  0
ARC
  5
4F
330
38
100
AcDbEntity
  8
0
 48
25.4
100
AcDbCircle
 10
339.4115520292362
 20
958.1407968393378
 30
0.0
 40
290.0
100
AcDbArc
 50
90.0
 51
180.0
  0
SPLINE
  5
50
330
38
100
AcDbEntity
  8
0
  6
Continuous
 62
     7
 48
25.4
100
AcDbSpline
210
0.0
220
0.0
230
1.0
 70
     8
 71
     3
 72
    34
 73
    30
 74
     0
 42
0.0000000001
 43
0.0000000001
 40
0.0
 40
0.0
 40
0.0
 40
0.0
 40
0.0020909496470034
 40
0.0039749363944989
 40
0.0436005352750647
 40
0.0935022080132522
 40
0.1520965160268936
 40
0.2198069568517661
 40
0.2437018730157693
 40
0.2501872305532252
 40
0.26349440165835
 40
0.3173160880552661
 40
0.3850151496050754
 40
0.4387057444450777
 40
0.499998985532104
 40
0.5630620247210219
 40
0.6238666288611327
 40
0.7023058974594436
 40
0.7299052223432402
 40
0.7498097072177284
 40
0.7539602154611238
 40
0.7577957129265535
 40
0.7980315291800784
 40
0.847817096290518
 40
0.9065651455701363
 40
0.9748534642873172
 40
0.9905570620986679
 40
0.9967328966428079
 40
1.0
 40
1.0
 40
1.0
 40
1.0
 10
162.0000092965456
 20
580.4240216796479
 30
0.0
 10
162.3015644985389
 20
580.4232050922182
 30
0.0
 10
162.8748268672025
 20
580.4216527434546
 30
0.0
 10
169.1631820760849
 20
580.4051978981004
 30
0.0
 10
182.3300113546901
 20
580.3313470456068
 30
0.0
 10
203.7024240849387
 20
580.3110205655119
 30
0.0
 10
229.1942399221771
 20
580.5156788705662
 30
0.0
 10
251.0267934507538
 20
581.0931008420793
 30
0.0
 10
265.3169405549015
 20
581.7603797391402
 30
0.0
 10
271.6817796437354
 20
582.089354006237
 30
0.0
 10
282.4105587318736
 20
582.7027101317817
 30
0.0
 10
302.067463812924
 20
584.0763159444467
 30
0.0
 10
327.5988556249759
 20
586.1073501415412
 30
0.0
 10
354.2351358906417
 20
587.8078635784586
 30
0.0
 10
380.2586933389139
 20
588.585213300119
 30
0.0
 10
407.3219937569191
 20
587.753644737011
 30
0.0
 10
436.8127681607983
 20
585.7865967785691
 30
0.0
 10
461.1296040764608
 20
583.8256812242361
 30
0.0
 10
479.4879112159941
 20
582.6014790516763
 30
0.0
 10
487.0166454643221
 20
582.1595219464143
 30
0.0
 10
491.0803515641636
 20
581.9462200079997
 30
0.0
 10
498.1052317388638
 20
581.5917006157815
 30
0.0
 10
511.7765307989575
 20
581.0087839287169
 30
0.0
 10
533.3822730509455
 20
580.4960057391707
 30
0.0
 10
558.9658237494695
 20
580.2872266465509
 30
0.0
 10
579.5482216751223
 20
580.3469326494505
 30
0.0
 10
592.5428646173204
 20
580.4034244486302
 30
0.0
 10
596.1667700700091
 20
580.4195159883511
 30
0.0
 10
597.5287769921233
 20
580.4228634961617
 30
0.0
 10
598.0000092965456
 20
580.4240216795697
 30
0.0
  0
LINE
  5
51
330
38
100
AcDbEntity
  8
0
  6
Continuous
 62
     7
 48
25.4
100
AcDbLine
 10
162.000009297244
 20
702.5796998993373
 30
0.0
 11
598.0000092972439
 21
702.5796998993373
 31
0.0
  0
LINE
  5
52
330
38
100
AcDbEntity
  8
0
  6
Continuous
 62
     7
 48
25.4
100
AcDbLine
 10
162.000009297244
 20
580.4240216793385
 30
0.0
 11
162.000009297244
 21
702.5796998993373
 31
0.0
  0
LINE
  5
53
330
38
100
AcDbEntity
  8
0
  6
Continuous
 62
     7
 48
25.4
100
AcDbLine
 10
162.000009297244
 20
408.2108477293385
 30
0.0
 11
162.000009297244
 21
580.4240216793385
 31
0.0
  0
LINE
  5
54
330
38
100
AcDbEntity
  8
0
  6
Continuous
 62
     7
 48
25.4
100
AcDbLine
 10
162.000009297244
 20
343.906977803339
 30
0.0
 11
162.000009297244
 21
408.2108477293385
 31
0.0
  0
LINE
  5
55
330
38
100
AcDbEntity
  8
0
  6
Continuous
 62
     7
 48
25.4
100
AcDbLine
 10
162.000009297244
 20
343.906977803339
 30
0.0
 11
162.000009297244
 21
52.45744639133771
 31
0.0
  0
ARC
  5
56
330
38
100
AcDbEntity
  8
0
  6
Continuous
 62
     7
 48
25.4
100
AcDbCircle
 10
540.4153522154993
 20
57.75060308777392
 30
0.0
 40
57.82741771024149
100
AcDbArc
 50
267.0466615318618
 51
354.7481549324938
  0
LINE
  5
57
330
38
100
AcDbEntity
  8
0
  6
Continuous
 62
     7
 48
25.4
100
AcDbLine
 10
222.5640886280999
 20
-0.0000097409720183
 30
0.0
 11
537.4359299652387
 21
-0.0000097426618595
 31
0.0
  0
SPLINE
  5
58
330
38
100
AcDbEntity
  8
0
  6
Continuous
 62
     7
 48
25.4
100
AcDbSpline
210
0.0
220
0.0
230
1.0
 70
     8
 71
     3
 72
    71
 73
    67
 74
     0
 42
0.0000000001
 43
0.0000000001
 40
0.0
 40
0.0
 40
0.0
 40
0.0
 40
0.0662673465498511
 40
0.1316255098764072
 40
0.1598430608489952
 40
0.1920164059091495
 40
0.2081366782312922
 40
0.2217281597174386
 40
0.2328237160495766
 40
0.2414435495566089
 40
0.2475978026924962
 40
0.2512901140537449
 40
0.2525210402789099
 40
0.2532487708121601
 40
0.2552004283115442
 40
0.2583772372663714
 40
0.2627827419050259
 40
0.2684220408039468
 40
0.2753014202375074
 40
0.2834286336628614
 40
0.2928123662364387
 40
0.3034611965128918
 40
0.3153820027734418
 40
0.3285778508457176
 40
0.3430455231383676
 40
0.3587730078781439
 40
0.375737473406832
 40
0.3978908319426388
 40
0.4149812999073045
 40
0.442975550750498
 40
0.4734410165609075
 40
0.5044384733785692
 40
0.5354669367491473
 40
0.569996656472113
 40
0.5948515860000211
 40
0.6075360525180922
 40
0.6242564691580226
 40
0.639167470266469
 40
0.6531340342258977
 40
0.6661394324003353
 40
0.6781735094426558
 40
0.6892317780471559
 40
0.6993141854014229
 40
0.7084237985493476
 40
0.7165655753521292
 40
0.7237453240332346
 40
0.7299689030870981
 40
0.7352416726179636
 40
0.7395681774203288
 40
0.7429520282035602
 40
0.7453965839037111
 40
0.7469033790145369
 40
0.7474733179395195
 40
0.7484157686674994
 40
0.7512427235737187
 40
0.7559543386107434
 40
0.762552125381118
 40
0.7710406049099939
 40
0.7814291886335603
 40
0.793733888162114
 40
0.8079784027769896
 40
0.8401517481909605
 40
0.8683692993123839
 40
0.9118120722825075
 40
0.9557556588804445
 40
1.0
 40
1.0
 40
1.0
 40
1.0
 10
162.0000092965456
 20
343.9069778040866
 30
0.0
 10
171.3174242466157
 20
345.5008244276105
 30
0.0
 10
189.8244198845313
 20
348.6666502137377
 30
0.0
 10
212.5416081336116
 20
352.7337455650759
 30
0.0
 10
230.6448609441031
 20
356.328067879891
 30
0.0
 10
241.7496117353185
 20
358.7373479832459
 30
0.0
 10
250.777498570238
 20
360.8495969320137
 30
0.0
 10
256.7452662058895
 20
362.3127255555919
 30
0.0
 10
261.6216229302336
 20
363.5600078779427
 30
0.0
 10
265.4118183067439
 20
364.5558522211977
 30
0.0
 10
268.113906825969
 20
365.297449542777
 30
0.0
 10
269.7397242225234
 20
365.7265882084812
 30
0.0
 10
270.5620448917143
 20
365.9764205504089
 30
0.0
 10
271.1450161690409
 20
366.0905661158486
 30
0.0
 10
272.0016041517119
 20
366.3342056592355
 30
0.0
 10
273.4013321402417
 20
366.7075279805013
 30
0.0
 10
275.3359312584616
 20
367.25519311674
 30
0.0
 10
277.8105539150674
 20
367.9643647346111
 30
0.0
 10
280.8246411098699
 20
368.8486738428947
 30
0.0
 10
284.3801422892247
 20
369.9102771927919
 30
0.0
 10
288.4783122938788
 20
371.1531404861944
 30
0.0
 10
293.1208508316449
 20
372.5763944886203
 30
0.0
 10
298.3094722333444
 20
374.1745361283593
 30
0.0
 10
304.0460378258395
 20
375.9350008835063
 30
0.0
 10
310.3324863994967
 20
377.8364785084595
 30
0.0
 10
317.1710617349199
 20
379.84627345423
 30
0.0
 10
325.1431711973673
 20
382.0823501397153
 30
0.0
 10
333.3546566912811
 20
384.2023192080178
 30
0.0
 10
343.2467063559125
 20
386.4686454192888
 30
0.0
 10
354.4722921257017
 20
388.5872890823776
 30
0.0
 10
367.9469044198522
 20
390.2623968050411
 30
0.0
 10
382.0382482071691
 20
390.7801726110156
 30
0.0
 10
396.7129375338954
 20
389.8303499581143
 30
0.0
 10
410.2650864127172
 20
387.7854042910239
 30
0.0
 10
420.9172675629633
 20
385.5457755751977
 30
0.0
 10
428.8774059739698
 20
383.6296789277549
 30
0.0
 10
435.3467353023187
 20
381.9391252124006
 30
0.0
 10
441.9764399287486
 20
380.0873241578793
 30
0.0
 10
448.0520470452646
 20
378.315267391903
 30
0.0
 10
453.7041419651758
 20
376.618545889085
 30
0.0
 10
458.9343130013038
 20
375.0216712400597
 30
0.0
 10
463.7439686775433
 20
373.5419361461863
 30
0.0
 10
468.1344638301488
 20
372.1908722059416
 30
0.0
 10
472.1070785180017
 20
370.9752306713781
 30
0.0
 10
475.6630308843559
 20
369.8980444695117
 30
0.0
 10
478.8034289469396
 20
368.9593670660324
 30
0.0
 10
481.5293687563353
 20
368.1576075843259
 30
0.0
 10
483.8415840545748
 20
367.4887214006558
 30
0.0
 10
485.7414047063321
 20
366.9513038129407
 30
0.0
 10
487.2281504548555
 20
366.534748007829
 30
0.0
 10
488.3058582749327
 20
366.2513251045766
 30
0.0
 10
488.9674476971303
 20
366.0638814782105
 30
0.0
 10
489.418491119355
 20
365.9804019844614
 30
0.0
 10
490.0495702528533
 20
365.7866038585325
 30
0.0
 10
491.2945371855712
 20
365.4588076343298
 30
0.0
 10
493.3626328988501
 20
364.886692034157
 30
0.0
 10
496.2632033812806
 20
364.1156399125575
 30
0.0
 10
499.9938670191877
 20
363.1422409712758
 30
0.0
 10
504.5582201495163
 20
361.990377253198
 30
0.0
 10
509.9578754030698
 20
360.6763726792615
 30
0.0
 10
518.5226001446972
 20
358.6784062329552
 30
0.0
 10
529.3552695743382
 20
356.3280907155586
 30
0.0
 10
544.3030094672393
 20
353.3599349424021
 30
0.0
 10
560.7854315379336
 20
350.3351713221673
 30
0.0
 10
579.3762308573312
 20
347.0982625278793
 30
0.0
 10
591.7779849105245
 20
344.9731551879614
 30
0.0
 10
598.0000092965456
 20
343.9069778040903
 30
0.0
  0
LINE
  5
59
330
38
100
AcDbEntity
  8
0
  6
Continuous
 62
     7
 48
25.4
100
AcDbLine
 10
598.0000092972439
 20
408.2108477293385
 30
0.0
 11
598.0000092972439
 21
580.4240216793385
 31
0.0
  0
LINE
  5
5A
330
38
100
AcDbEntity
  8
0
  6
Continuous
 62
     7
 48
25.4
100
AcDbLine
 10
598.0000092972439
 20
343.906977803339
 30
0.0
 11
598.0000092972439
 21
408.2108477293385
 31
0.0
  0
LINE
  5
5B
330
38
100
AcDbEntity
  8
0
  6
Continuous
 62
     7
 48
25.4
100
AcDbLine
 10
598.0000092972439
 20
343.906977803339
 30
0.0
 11
598.0000092972439
 21
52.45744639133771
 31
0.0
  0
LINE
  5
5C
330
38
100
AcDbEntity
  8
0
  6
Continuous
 62
     7
 48
25.4
100
AcDbLine
 10
598.0000092972439
 20
580.4240216793385
 30
0.0
 11
598.0000092972439
 21
702.5796998993373
 31
0.0
  0
LINE
  5
5D
330
38
100
AcDbEntity
  8
0
  6
Continuous
 62
     7
 48
25.4
100
AcDbLine
 10
633.950608689247
 20
537.0796998993391
 30
0.0
 11
598.0000092972439
 21
537.0796998993391
 31
0.0
  0
LINE
  5
5E
330
38
100
AcDbEntity
  8
0
  6
Continuous
 62
     7
 48
25.4
100
AcDbLine
 10
162.000009297244
 20
537.0796998993391
 30
0.0
 11
128.950608689247
 21
537.0796998993391
 31
0.0
  0
LINE
  5
5F
330
38
100
AcDbEntity
  8
0
  6
Continuous
 62
     7
 48
25.4
100
AcDbLine
 10
153.950608689247
 20
512.0796998993391
 30
0.0
 11
162.000009297244
 21
512.0796998993391
 31
0.0
  0
LINE
  5
60
330
38
100
AcDbEntity
  8
0
  6
Continuous
 62
     7
 48
25.4
100
AcDbLine
 10
598.0000092972439
 20
512.0796998993391
 30
0.0
 11
608.950608689247
 21
512.0796998993391
 31
0.0
  0
LINE
  5
61
330
38
100
AcDbEntity
  8
0
  6
Continuous
 62
     7
 48
25.4
100
AcDbLine
 10
128.950608689247
 20
537.0796998993391
 30
0.0
 11
128.950608689247
 21
187.0796998993391
 31
0.0
  0
LINE
  5
62
330
38
100
AcDbEntity
  8
0
  6
Continuous
 62
     7
 48
25.4
100
AcDbLine
 10
153.950608689247
 20
187.0796998993391
 30
0.0
 11
153.950608689247
 21
512.0796998993391
 31
0.0
  0
ARC
  5
63
330
38
100
AcDbEntity
  8
0
  6
Continuous
 62
     7
 48
25.4
100
AcDbCircle
 10
141.450608689247
 20
187.0796998993391
 30
0.0
 40
12.50000000000001
100
AcDbArc
 50
180.0
 51
270.0
  0
ARC
  5
64
330
38
100
AcDbEntity
  8
0
  6
Continuous
 62
     7
 48
25.4
100
AcDbCircle
 10
141.450608689247
 20
187.0796998993391
 30
0.0
 40
12.50000000000007
100
AcDbArc
 50
270.0
 51
0.0
  0
ARC
  5
65
330
38
100
AcDbEntity
  8
0
  6
Continuous
 62
     7
 48
25.4
100
AcDbCircle
 10
621.450608689247
 20
187.0796998993391
 30
0.0
 40
12.50000000000007
100
AcDbArc
 50
180.0
 51
270.0
  0
ARC
  5
66
330
38
100
AcDbEntity
  8
0
  6
Continuous
 62
     7
 48
25.4
100
AcDbCircle
 10
621.450608689247
 20
187.0796998993391
 30
0.0
 40
12.50000000000007
100
AcDbArc
 50
270.0
 51
0.0
  0
LINE
  5
67
330
38
100
AcDbEntity
  8
0
  6
Continuous
 62
     7
 48
25.4
100
AcDbLine
 10
633.950608689247
 20
187.0796998993391
 30
0.0
 11
633.950608689247
 21
537.0796998993391
 31
0.0
  0
LINE
  5
68
330
38
100
AcDbEntity
  8
0
  6
Continuous
 62
     7
 48
25.4
100
AcDbLine
 10
608.950608689247
 20
512.0796998993391
 30
0.0
 11
608.950608689247
 21
187.0796998993391
 31
0.0
  0
LINE
  5
69
330
38
100
AcDbEntity
  8
0
  6
Continuous
 62
     7
 48
25.4
100
AcDbLine
 10
15.0000092972441
 20
562.1407968393376
 30
0.0
 11
15.0000092972441
 21
568.1407968393378
 31
0.0
  0
ARC
  5
6A
330
38
100
AcDbEntity
  8
0
  6
Continuous
 62
     7
 48
25.4
100
AcDbCircle
 10
19.0000092972441
 20
562.1407968393376
 30
0.0
 40
4.0
100
AcDbArc
 50
180.0
 51
270.0
  0
LINE
  5
6B
330
38
100
AcDbEntity
  8
0
  6
Continuous
 62
     7
 48
25.4
100
AcDbLine
 10
1618.248832619243
 20
543.1407968393378
 30
0.0
 11
598.0000092972439
 21
543.1407968393378
 31
0.0
  0
LINE
  5
6C
330
38
100
AcDbEntity
  8
0
  6
Continuous
 62
     7
 48
25.4
100
AcDbLine
 10
162.000009297244
 20
543.1407968393378
 30
0.0
 11
111.751185973244
 21
543.1407968393378
 31
0.0
  0
LINE
  5
6D
330
38
100
AcDbEntity
  8
0
  6
Continuous
 62
     7
 48
25.4
100
AcDbLine
 10
25.00000929724411
 20
558.1407968393376
 30
0.0
 11
19.0000092972441
 21
558.1407968393376
 31
0.0
  0
LINE
  5
6E
330
38
100
AcDbEntity
  8
0
  6
Continuous
 62
     7
 48
25.4
100
AcDbLine
 10
1705.000009297244
 20
558.1407968393376
 30
0.0
 11
1621.724539297243
 21
543.4451256633383
 31
0.0
  0
ARC
  5
6F
330
38
100
AcDbEntity
  8
0
  6
Continuous
 62
     7
 48
25.4
100
AcDbCircle
 10
1618.248832619243
 20
563.1407968393378
 30
0.0
 40
20.0
100
AcDbArc
 50
270.0
 51
280.0079798015515
  0
ARC
  5
70
330
38
100
AcDbEntity
  8
0
  6
Continuous
 62
     7
 48
25.4
100
AcDbCircle
 10
111.751185973244
 20
563.1407968393378
 30
0.0
 40
20.0
100
AcDbArc
 50
259.9920201984485
 51
270.0
  0
ARC
  5
71
330
38
100
AcDbEntity
  8
0
  6
Continuous
 62
     7
 48
25.4
100
AcDbCircle
 10
23.24883261924333
 20
538.1407968393379
 30
0.0
 40
19.99999999999997
100
AcDbArc
 50
82.3039482780288
 51
90.0
  0
LINE
  5
72
330
38
100
AcDbEntity
  8
0
  6
Continuous
 62
     7
 48
25.4
100
AcDbLine
 10
108.2754792952437
 20
543.4451256633383
 30
0.0
 11
25.9271905392634
 21
557.9606454475452
 31
0.0
  0
ELLIPSE
  5
73
330
38
100
AcDbEntity
  8
0
  6
Continuous
 62
     7
 48
25.4
100
AcDbEllipse
 10
34.63970651324416
 20
611.6387087053388
 30
0.0
 11
19.81984860841081
 21
2.678357920027219
 31
0.0
210
0.0
220
0.0
230
0.9999999999999998
 40
0.7039005128
 41
2.951919959409194
 42
3.141592653589792
  0
ELLIPSE
  5
74
330
38
100
AcDbEntity
  8
0
  6
Continuous
 62
     7
 48
25.4
100
AcDbEllipse
 10
34.31489677323771
 20
613.6535342673377
 30
0.0
 11
19.65744373867467
 21
3.685770701005603
 31
0.0
210
0.0
220
0.0
230
1.0
 40
0.8064254259999998
 41
2.913144008768758
 42
3.141592653589796
  0
ELLIPSE
  5
75
330
38
100
AcDbEntity
  8
0
  6
Continuous
 62
     7
 48
25.4
100
AcDbEllipse
 10
34.63970651324416
 20
1284.642884973338
 30
0.0
 11
-19.81984860831934
 21
2.678357920026906
 31
0.0
210
0.0
220
0.0
230
1.0
 40
0.7039005128
 41
0.0
 42
0.1896726941814828
  0
ELLIPSE
  5
76
330
38
100
AcDbEntity
  8
0
  6
Continuous
 62
     7
 48
25.4
100
AcDbEllipse
 10
34.31489677323771
 20
1282.628059411338
 30
0.0
 11
-19.65744373872736
 21
3.685770701003175
 31
0.0
210
0.0
220
0.0
230
1.0
 40
0.8064254259999998
 41
0.0
 42
0.2284486448203008
  0
ELLIPSE
  5
77
330
38
100
AcDbEntity
  8
0
  6
Continuous
 62
     7
 48
25.4
100
AcDbEllipse
 10
-4.999990704756783
 20
1289.999600813338
 30
0.0
 11
0.0000000000164001
 21
-40.00000000033021
 31
0.0
210
0.0
220
0.0
230
1.0
 40
0.5
 41
1.436474884842096
 42
1.570796326793953
  0
ARC
  5
78
330
38
100
AcDbEntity
  8
0
  6
Continuous
 62
     7
 48
25.4
100
AcDbCircle
 10
-4.999990702755893
 20
1289.999600813338
 30
0.0
 40
19.99999999999997
100
AcDbArc
 50
352.3039482780512
 51
0.0
  0
ARC
  5
79
330
38
100
AcDbEntity
  8
0
  6
Continuous
 62
     7
 48
25.4
100
AcDbCircle
 10
-24.81983931075593
 20
1289.999600813338
 30
0.0
 40
39.99999999998335
100
AcDbArc
 50
349.3803447238193
 51
352.3039482780512
  0
LINE
  5
7A
330
38
100
AcDbEntity
  8
0
  6
Continuous
 62
     7
 48
25.4
100
AcDbLine
 10
0.3425655572464166
 20
1209.96776356734
 30
0.0
 11
14.6574530352409
 21
1286.313830113338
 31
0.0
  0
ARC
  5
7B
330
38
100
AcDbEntity
  8
0
  6
Continuous
 62
     7
 48
25.4
100
AcDbCircle
 10
20.00000929724411
 20
1206.281992865339
 30
0.0
 40
20.00000000000002
100
AcDbArc
 50
169.3803447238192
 51
180.0
  0
LINE
  5
7C
330
38
100
AcDbEntity
  8
0
  6
Continuous
 62
     7
 48
25.4
100
AcDbLine
 10
0.0000092972441053
 20
689.9996008133385
 30
0.0
 11
0.0000092972441053
 21
1206.281992865339
 31
0.0
  0
LINE
  5
7D
330
38
100
AcDbEntity
  8
0
  6
Continuous
 62
     7
 48
25.4
100
AcDbLine
 10
14.81985790524413
 20
611.6387087053388
 30
0.0
 11
14.81985790524413
 21
1284.642884973338
 31
0.0
  0
ELLIPSE
  5
7E
330
38
100
AcDbEntity
  8
0
  6
Continuous
 62
     7
 48
25.4
100
AcDbEllipse
 10
-4.999990702755893
 20
606.2819928653389
 30
0.0
 11
-0.0000000000520591
 21
39.99999999938192
 31
0.0
210
0.0
220
0.0
230
1.0
 40
0.5
 41
4.712388980382105
 42
4.846710422337157
  0
ARC
  5
7F
330
38
100
AcDbEntity
  8
0
  6
Continuous
 62
     7
 48
25.4
100
AcDbCircle
 10
-4.999990702755893
 20
606.2819928653389
 30
0.0
 40
19.9999999999998
100
AcDbArc
 50
0.0
 51
7.696051721948877
  0
ARC
  5
80
330
38
100
AcDbEntity
  8
0
  6
Continuous
 62
     7
 48
25.4
100
AcDbCircle
 10
-24.81983931075593
 20
606.2819928653389
 30
0.0
 40
40.00000000000044
100
AcDbArc
 50
7.696051721948877
 51
10.61965527618074
  0
LINE
  5
81
330
38
100
AcDbEntity
  8
0
  6
Continuous
 62
     7
 48
25.4
100
AcDbLine
 10
14.6574530352409
 20
609.9677635673379
 30
0.0
 11
0.3425655572464166
 21
686.3138301133384
 31
0.0
  0
ARC
  5
82
330
38
100
AcDbEntity
  8
0
  6
Continuous
 62
     7
 48
25.4
100
AcDbCircle
 10
20.00000929724411
 20
689.9996008133385
 30
0.0
 40
20.0
100
AcDbArc
 50
180.0
 51
190.6196552761807
  0
LINE
  5
83
330
38
100
AcDbEntity
  8
0
  6
Continuous
 62
     7
 48
25.4
100
AcDbLine
 10
125.6048602112387
 20
640.1407968393377
 30
0.0
 11
162.000009297244
 21
640.1407968393377
 31
0.0
  0
CIRCLE
  5
84
330
38
100
AcDbEntity
  8
0
  6
Continuous
 62
     7
 48
25.4
100
AcDbCircle
 10
95.00000929724413
 20
655.1407968393378
 30
0.0
 40
29.0
  0
CIRCLE
  5
85
330
38
100
AcDbEntity
  8
0
  6
Continuous
 62
     7
 48
25.4
100
AcDbCircle
 10
95.00000929724413
 20
655.1407968393378
 30
0.0
 40
34.0
  0
LINE
  5
86
330
38
100
AcDbEntity
  8
0
  6
Continuous
 62
     7
 48
25.4
100
AcDbLine
 10
162.000009297244
 20
670.1407968393377
 30
0.0
 11
125.5823541972459
 21
670.1407968393377
 31
0.0
  0
ARC
  5
87
330
38
100
AcDbEntity
  8
0
  6
Continuous
 62
     7
 48
25.4
100
AcDbCircle
 10
95.00000929724413
 20
655.1407968393378
 30
0.0
 40
56.0
100
AcDbArc
 50
15.53679406826554
 51
344.4632059317345
  0
ARC
  5
88
330
38
100
AcDbEntity
  8
0
  6
Continuous
 62
     7
 48
25.4
100
AcDbCircle
 10
95.00000929724413
 20
655.1407968393378
 30
0.0
 40
35.94840344592762
100
AcDbArc
 50
24.66201699977051
 51
335.3379830002295
  0
ARC
  5
89
330
38
100
AcDbEntity
  8
0
 48
25.4
370
     9
100
AcDbCircle
 10
535.1974369172493
 20
933.1407968393396
 30
0.0
 40
175.0008092245635
100
AcDbArc
 50
90.17424177937776
 51
269.8257582206222
  0
LINE
  5
8A
330
38
100
AcDbEntity
  8
0
 48
25.4
370
     9
100
AcDbLine
 10
1396.721852884144
 20
946.0573969164123
 30
0.0
 11
1396.721852884144
 21
883.5167075096887
 31
0.0
  0
LINE
  5
8B
330
38
100
AcDbEntity
  8
0
 48
25.4
370
     9
100
AcDbLine
 10
534.6652440459693
 20
1108.140796839339
 30
0.0
 11
1346.725437524143
 21
1108.140796839339
 31
0.0
  0
LINE
  5
8C
330
38
100
AcDbEntity
  8
0
 48
25.4
370
     9
100
AcDbLine
 10
49.41155202923618
 20
958.1407968393195
 30
0.0
 11
49.41155202923618
 21
933.1407968393396
 31
0.0
  0
ARC
  5
8D
330
38
100
AcDbEntity
  8
0
 48
25.4
100
AcDbCircle
 10
339.4115520292362
 20
908.1407968393378
 30
0.0
 40
290.0
100
AcDbArc
 50
180.0
 51
232.2828430827847
  0
LINE
  5
8E
330
38
100
AcDbEntity
  8
0
 48
25.4
370
     9
100
AcDbLine
 10
49.41155202923618
 20
908.1407968393575
 30
0.0
 11
49.41155202923618
 21
933.1407968393378
 31
0.0
  0
LINE
  5
8F
330
38
100
AcDbEntity
  8
0
 48
25.4
370
     9
100
AcDbLine
 10
534.6652440459693
 20
758.1407968393378
 30
0.0
 11
1346.725437524143
 21
758.1407968393396
 31
0.0
  0
ARC
  5
90
330
38
100
AcDbEntity
  8
0
  6
Continuous
 62
     7
 48
25.4
100
AcDbCircle
 10
219.5846663778466
 20
57.75060308777392
 30
0.0
 40
57.82741771024149
100
AcDbArc
 50
185.2518450675061
 51
272.9533384683477
  0
ARC
  5
91
330
38
100
AcDbEntity
  8
0
 48
25.4
370
     9
100
AcDbCircle
 10
1685.747559412164
 20
938.9253444239129
 30
0.0
 40
25.0
100
AcDbArc
 50
258.4303049333276
 51
101.6522920882317
  0
LINE
  5
92
330
38
100
AcDbEntity
  8
0
 48
25.4
370
     9
100
AcDbLine
 10
1680.73356503079
 20
914.4333077518936
 30
0.0
 11
1613.09434170221
 21
921.3024794822596
 31
0.0
  0
LINE
  5
93
330
38
100
AcDbEntity
  8
0
 48
25.4
370
     9
100
AcDbLine
 10
1680.698262778467
 20
963.4101275249522
 30
0.0
 11
1613.192108501043
 21
956.5386484557439
 31
0.0
  0
ARC
  5
94
330
38
100
AcDbEntity
  8
0
 48
25.4
370
     9
100
AcDbCircle
 10
1613.14322510163
 20
938.9205639690024
 30
0.0
 40
17.61815230291333
100
AcDbArc
 50
89.84102668546155
 51
269.8410266854616
  0
TEXT
  5
95
330
38
100
AcDbEntity
  8
0
370
     9
100
AcDbText
 10
38.64047468616263
 20
1272.491125040136
 30
0.0
 40
20.0
  1
WINDSOR 2 - 1700mm (left hand)
100
AcDbText
  0
ENDBLK
  5
96
330
38
100
AcDbEntity
  8
0
 48
25.4
370
     9
100
AcDbBlockEnd
  0
ENDSEC
  0
SECTION
  2
ENTITIES
  0
LINE
  5
CE
330
2
100
AcDbEntity
  8
0
  6
Continuous
 62
     7
 48
25.4
100
AcDbLine
 10
17578.22185288414
 20
-3475.275803234661
 30
0.0
 11
17578.22185288414
 21
-3585.486920026661
 31
0.0
  0
ELLIPSE
  5
CF
330
2
100
AcDbEntity
  8
0
  6
Continuous
 62
     7
 48
25.4
100
AcDbEllipse
 10
17528.22543752414
 20
-3585.426353476659
 30
0.0
 11
18.52185746727226
 21
48.8885558937701
 31
0.0
210
0.0
220
0.0
230
1.0
 40
0.9505610510608139
 41
3.52085988896446
 42
5.056892615321702
  0
ELLIPSE
  5
D0
330
2
100
AcDbEntity
  8
0
  6
Continuous
 62
     7
 48
25.4
100
AcDbEllipse
 10
17528.22543752414
 20
-3339.29205284266
 30
0.0
 11
-18.52185746481152
 21
48.8885558920673
 31
0.0
210
0.0
220
0.0
230
1.0
 40
0.9505610511125105
 41
4.367885345461661
 42
5.903918071857335
  0
LINE
  5
D1
330
2
100
AcDbEntity
  8
0
  6
Continuous
 62
     7
 48
25.4
100
AcDbLine
 10
17578.22185288414
 20
-3339.231486294661
 30
0.0
 11
17578.22185288414
 21
-3449.442603084661
 31
0.0
  0
LINE
  5
D2
330
2
100
AcDbEntity
  8
0
  6
Continuous
 62
     7
 48
25.4
100
AcDbLine
 10
16196.50000929724
 20
-3097.359203160662
 30
0.0
 11
16196.50000929724
 21
-3827.359203160663
 31
0.0
  0
LINE
  5
D3
330
2
100
AcDbEntity
  8
0
  6
Continuous
 62
     7
 48
25.4
100
AcDbLine
 10
17886.50000929724
 20
-3087.359203160661
 30
0.0
 11
16206.50000929724
 21
-3087.359203160661
 31
0.0
  0
LINE
  5
D4
330
2
100
AcDbEntity
  8
0
  6
Continuous
 62
     7
 48
25.4
100
AcDbLine
 10
17896.50000929724
 20
-3827.359203160663
 30
0.0
 11
17896.50000929724
 21
-3097.359203160662
 31
0.0
  0
LINE
  5
D5
330
2
100
AcDbEntity
  8
0
  6
Continuous
 62
     7
 48
25.4
100
AcDbLine
 10
16206.50000929724
 20
-3837.359203160662
 30
0.0
 11
16343.50000929724
 21
-3837.359203160662
 31
0.0
  0
LINE
  5
D6
330
2
100
AcDbEntity
  8
0
  6
Continuous
 62
     7
 48
25.4
100
AcDbLine
 10
16779.50000929724
 20
-3837.359203160662
 30
0.0
 11
17886.50000929724
 21
-3837.359203160662
 31
0.0
  0
ARC
  5
D7
330
2
100
AcDbEntity
  8
0
  6
Continuous
 62
     7
 48
25.4
100
AcDbCircle
 10
16206.50000929724
 20
-3097.359203160662
 30
0.0
 40
10.00000000000001
100
AcDbArc
 50
90.0
 51
180.0
  0
ARC
  5
D8
330
2
100
AcDbEntity
  8
0
  6
Continuous
 62
     7
 48
25.4
100
AcDbCircle
 10
17886.50000929724
 20
-3097.359203160662
 30
0.0
 40
10.00000000000001
100
AcDbArc
 50
0.0
 51
90.0
  0
ARC
  5
D9
330
2
100
AcDbEntity
  8
0
  6
Continuous
 62
     7
 48
25.4
100
AcDbCircle
 10
17886.50000929724
 20
-3827.359203160663
 30
0.0
 40
9.999999999999953
100
AcDbArc
 50
270.0
 51
0.0
  0
ARC
  5
DA
330
2
100
AcDbEntity
  8
0
  6
Continuous
 62
     7
 48
25.4
100
AcDbCircle
 10
17558.22185288414
 20
-3462.359203160661
 30
0.0
 40
19.99999999999948
100
AcDbArc
 50
319.7720651418712
 51
40.22793485812885
  0
ARC
  5
DB
330
2
100
AcDbEntity
  8
0
  6
Continuous
 62
     7
 48
25.4
100
AcDbCircle
 10
17558.22185288414
 20
-3462.359203160661
 30
0.0
 40
19.99999999999997
100
AcDbArc
 50
40.22793485812885
 51
319.7720651418712
  0
LINE
  5
DC
330
2
100
AcDbEntity
  8
0
  6
Continuous
 62
     7
 48
25.4
100
AcDbLine
 10
16779.50000929724
 20
-3777.359203160663
 30
0.0
 11
17664.36719112723
 21
-3777.359203160663
 31
0.0
  0
LINE
  5
DD
330
2
100
AcDbEntity
  8
0
  6
Continuous
 62
     7
 48
25.4
100
AcDbLine
 10
17844.36719112723
 20
-3591.367002956658
 30
0.0
 11
17844.36719112723
 21
-3333.351403364661
 31
0.0
  0
ARC
  5
DE
330
2
100
AcDbEntity
  8
0
  6
Continuous
 62
     7
 48
25.4
100
AcDbCircle
 10
17653.71689483361
 20
-3586.955505788547
 30
0.0
 40
190.7013287423932
100
AcDbArc
 50
273.2015229775263
 51
358.67445748968
  0
ARC
  5
DF
330
2
100
AcDbEntity
  8
0
  6
Continuous
 62
     7
 48
25.4
100
AcDbCircle
 10
17653.71689483361
 20
-3337.762900532773
 30
0.0
 40
190.7013287423921
100
AcDbArc
 50
1.32554251031995
 51
86.79847702247363
  0
LINE
  5
E0
330
2
100
AcDbEntity
  8
0
  6
Continuous
 62
     7
 48
25.4
100
AcDbLine
 10
17664.36719112723
 20
-3147.359203160661
 30
0.0
 11
16520.91155202923
 21
-3147.359203160661
 31
0.0
  0
ARC
  5
E1
330
2
100
AcDbEntity
  8
0
 48
25.4
100
AcDbCircle
 10
16520.91155202923
 20
-3437.359203160662
 30
0.0
 40
290.0
100
AcDbArc
 50
90.0
 51
180.0
  0
SPLINE
  5
E2
330
2
100
AcDbEntity
  8
0
  6
Continuous
 62
     7
 48
25.4
100
AcDbSpline
210
0.0
220
0.0
230
1.0
 70
     8
 71
     3
 72
    34
 73
    30
 74
     0
 42
0.0000000001
 43
0.0000000001
 40
0.0
 40
0.0
 40
0.0
 40
0.0
 40
0.0020909496470034
 40
0.0039749363944989
 40
0.0436005352750647
 40
0.0935022080132522
 40
0.1520965160268936
 40
0.2198069568517661
 40
0.2437018730157693
 40
0.2501872305532252
 40
0.26349440165835
 40
0.3173160880552661
 40
0.3850151496050754
 40
0.4387057444450777
 40
0.499998985532104
 40
0.5630620247210219
 40
0.6238666288611327
 40
0.7023058974594436
 40
0.7299052223432402
 40
0.7498097072177284
 40
0.7539602154611238
 40
0.7577957129265535
 40
0.7980315291800784
 40
0.847817096290518
 40
0.9065651455701363
 40
0.9748534642873172
 40
0.9905570620986679
 40
0.9967328966428079
 40
1.0
 40
1.0
 40
1.0
 40
1.0
 10
16343.50000929654
 20
-3815.075978320352
 30
0.0
 10
16343.80156449854
 20
-3815.076794907782
 30
0.0
 10
16344.3748268672
 20
-3815.078347256546
 30
0.0
 10
16350.66318207608
 20
-3815.0948021019
 30
0.0
 10
16363.83001135469
 20
-3815.168652954393
 30
0.0
 10
16385.20242408494
 20
-3815.188979434488
 30
0.0
 10
16410.69423992218
 20
-3814.984321129434
 30
0.0
 10
16432.52679345075
 20
-3814.406899157921
 30
0.0
 10
16446.8169405549
 20
-3813.73962026086
 30
0.0
 10
16453.18177964373
 20
-3813.410645993764
 30
0.0
 10
16463.91055873187
 20
-3812.797289868218
 30
0.0
 10
16483.56746381292
 20
-3811.423684055553
 30
0.0
 10
16509.09885562497
 20
-3809.392649858459
 30
0.0
 10
16535.73513589064
 20
-3807.692136421542
 30
0.0
 10
16561.75869333891
 20
-3806.914786699881
 30
0.0
 10
16588.82199375692
 20
-3807.746355262989
 30
0.0
 10
16618.3127681608
 20
-3809.713403221431
 30
0.0
 10
16642.62960407646
 20
-3811.674318775764
 30
0.0
 10
16660.98791121599
 20
-3812.898520948323
 30
0.0
 10
16668.51664546432
 20
-3813.340478053586
 30
0.0
 10
16672.58035156416
 20
-3813.553779992
 30
0.0
 10
16679.60523173886
 20
-3813.908299384219
 30
0.0
 10
16693.27653079895
 20
-3814.491216071283
 30
0.0
 10
16714.88227305094
 20
-3815.00399426083
 30
0.0
 10
16740.46582374947
 20
-3815.212773353449
 30
0.0
 10
16761.04822167512
 20
-3815.15306735055
 30
0.0
 10
16774.04286461732
 20
-3815.09657555137
 30
0.0
 10
16777.66677007001
 20
-3815.080484011649
 30
0.0
 10
16779.02877699212
 20
-3815.077136503838
 30
0.0
 10
16779.50000929654
 20
-3815.07597832043
 30
0.0
  0
LINE
  5
E3
330
2
100
AcDbEntity
  8
0
  6
Continuous
 62
     7
 48
25.4
100
AcDbLine
 10
16343.50000929724
 20
-3692.920300100663
 30
0.0
 11
16779.50000929724
 21
-3692.920300100663
 31
0.0
  0
LINE
  5
E4
330
2
100
AcDbEntity
  8
0
  6
Continuous
 62
     7
 48
25.4
100
AcDbLine
 10
16343.50000929724
 20
-3815.075978320662
 30
0.0
 11
16343.50000929724
 21
-3692.920300100663
 31
0.0
  0
LINE
  5
E5
330
2
100
AcDbEntity
  8
0
  6
Continuous
 62
     7
 48
25.4
100
AcDbLine
 10
16343.50000929724
 20
-3987.289152270662
 30
0.0
 11
16343.50000929724
 21
-3815.075978320662
 31
0.0
  0
LINE
  5
E6
330
2
100
AcDbEntity
  8
0
  6
Continuous
 62
     7
 48
25.4
100
AcDbLine
 10
16343.50000929724
 20
-4051.593022196661
 30
0.0
 11
16343.50000929724
 21
-3987.289152270662
 31
0.0
  0
LINE
  5
E7
330
2
100
AcDbEntity
  8
0
  6
Continuous
 62
     7
 48
25.4
100
AcDbLine
 10
16343.50000929724
 20
-4051.593022196661
 30
0.0
 11
16343.50000929724
 21
-4343.042553608662
 31
0.0
  0
ARC
  5
E8
330
2
100
AcDbEntity
  8
0
  6
Continuous
 62
     7
 48
25.4
100
AcDbCircle
 10
16721.9153522155
 20
-4337.749396912226
 30
0.0
 40
57.82741771024149
100
AcDbArc
 50
267.0466615318618
 51
354.7481549324938
  0
LINE
  5
E9
330
2
100
AcDbEntity
  8
0
  6
Continuous
 62
     7
 48
25.4
100
AcDbLine
 10
16404.0640886281
 20
-4395.500009740972
 30
0.0
 11
16718.93592996524
 21
-4395.500009742661
 31
0.0
  0
SPLINE
  5
EA
330
2
100
AcDbEntity
  8
0
  6
Continuous
 62
     7
 48
25.4
100
AcDbSpline
210
0.0
220
0.0
230
1.0
 70
     8
 71
     3
 72
    71
 73
    67
 74
     0
 42
0.0000000001
 43
0.0000000001
 40
0.0
 40
0.0
 40
0.0
 40
0.0
 40
0.0662673465498511
 40
0.1316255098764072
 40
0.1598430608489952
 40
0.1920164059091495
 40
0.2081366782312922
 40
0.2217281597174386
 40
0.2328237160495766
 40
0.2414435495566089
 40
0.2475978026924962
 40
0.2512901140537449
 40
0.2525210402789099
 40
0.2532487708121601
 40
0.2552004283115442
 40
0.2583772372663714
 40
0.2627827419050259
 40
0.2684220408039468
 40
0.2753014202375074
 40
0.2834286336628614
 40
0.2928123662364387
 40
0.3034611965128918
 40
0.3153820027734418
 40
0.3285778508457176
 40
0.3430455231383676
 40
0.3587730078781439
 40
0.375737473406832
 40
0.3978908319426388
 40
0.4149812999073045
 40
0.442975550750498
 40
0.4734410165609075
 40
0.5044384733785692
 40
0.5354669367491473
 40
0.569996656472113
 40
0.5948515860000211
 40
0.6075360525180922
 40
0.6242564691580226
 40
0.639167470266469
 40
0.6531340342258977
 40
0.6661394324003353
 40
0.6781735094426558
 40
0.6892317780471559
 40
0.6993141854014229
 40
0.7084237985493476
 40
0.7165655753521292
 40
0.7237453240332346
 40
0.7299689030870981
 40
0.7352416726179636
 40
0.7395681774203288
 40
0.7429520282035602
 40
0.7453965839037111
 40
0.7469033790145369
 40
0.7474733179395195
 40
0.7484157686674994
 40
0.7512427235737187
 40
0.7559543386107434
 40
0.762552125381118
 40
0.7710406049099939
 40
0.7814291886335603
 40
0.793733888162114
 40
0.8079784027769896
 40
0.8401517481909605
 40
0.8683692993123839
 40
0.9118120722825075
 40
0.9557556588804445
 40
1.0
 40
1.0
 40
1.0
 40
1.0
 10
16343.50000929654
 20
-4051.593022195913
 30
0.0
 10
16352.81742424661
 20
-4049.99917557239
 30
0.0
 10
16371.32441988453
 20
-4046.833349786262
 30
0.0
 10
16394.04160813361
 20
-4042.766254434924
 30
0.0
 10
16412.1448609441
 20
-4039.171932120108
 30
0.0
 10
16423.24961173532
 20
-4036.762652016753
 30
0.0
 10
16432.27749857024
 20
-4034.650403067986
 30
0.0
 10
16438.24526620589
 20
-4033.187274444408
 30
0.0
 10
16443.12162293023
 20
-4031.939992122057
 30
0.0
 10
16446.91181830674
 20
-4030.944147778802
 30
0.0
 10
16449.61390682597
 20
-4030.202550457222
 30
0.0
 10
16451.23972422252
 20
-4029.773411791519
 30
0.0
 10
16452.06204489171
 20
-4029.52357944959
 30
0.0
 10
16452.64501616904
 20
-4029.409433884151
 30
0.0
 10
16453.50160415171
 20
-4029.165794340764
 30
0.0
 10
16454.90133214024
 20
-4028.792472019499
 30
0.0
 10
16456.83593125846
 20
-4028.24480688326
 30
0.0
 10
16459.31055391506
 20
-4027.535635265389
 30
0.0
 10
16462.32464110987
 20
-4026.651326157105
 30
0.0
 10
16465.88014228922
 20
-4025.589722807207
 30
0.0
 10
16469.97831229388
 20
-4024.346859513805
 30
0.0
 10
16474.62085083164
 20
-4022.923605511379
 30
0.0
 10
16479.80947223334
 20
-4021.32546387164
 30
0.0
 10
16485.54603782584
 20
-4019.564999116493
 30
0.0
 10
16491.8324863995
 20
-4017.663521491541
 30
0.0
 10
16498.67106173492
 20
-4015.65372654577
 30
0.0
 10
16506.64317119737
 20
-4013.417649860285
 30
0.0
 10
16514.85465669128
 20
-4011.297680791982
 30
0.0
 10
16524.74670635591
 20
-4009.031354580711
 30
0.0
 10
16535.9722921257
 20
-4006.912710917623
 30
0.0
 10
16549.44690441985
 20
-4005.237603194959
 30
0.0
 10
16563.53824820717
 20
-4004.719827388984
 30
0.0
 10
16578.21293753389
 20
-4005.669650041886
 30
0.0
 10
16591.76508641271
 20
-4007.714595708976
 30
0.0
 10
16602.41726756296
 20
-4009.954224424801
 30
0.0
 10
16610.37740597397
 20
-4011.870321072245
 30
0.0
 10
16616.84673530232
 20
-4013.560874787599
 30
0.0
 10
16623.47643992875
 20
-4015.41267584212
 30
0.0
 10
16629.55204704526
 20
-4017.184732608097
 30
0.0
 10
16635.20414196517
 20
-4018.881454110915
 30
0.0
 10
16640.4343130013
 20
-4020.47832875994
 30
0.0
 10
16645.24396867754
 20
-4021.958063853814
 30
0.0
 10
16649.63446383015
 20
-4023.309127794059
 30
0.0
 10
16653.607078518
 20
-4024.524769328621
 30
0.0
 10
16657.16303088435
 20
-4025.601955530488
 30
0.0
 10
16660.30342894694
 20
-4026.540632933968
 30
0.0
 10
16663.02936875633
 20
-4027.342392415675
 30
0.0
 10
16665.34158405457
 20
-4028.011278599344
 30
0.0
 10
16667.24140470633
 20
-4028.548696187059
 30
0.0
 10
16668.72815045485
 20
-4028.965251992171
 30
0.0
 10
16669.80585827493
 20
-4029.248674895423
 30
0.0
 10
16670.46744769713
 20
-4029.436118521789
 30
0.0
 10
16670.91849111935
 20
-4029.519598015538
 30
0.0
 10
16671.54957025285
 20
-4029.713396141467
 30
0.0
 10
16672.79453718557
 20
-4030.04119236567
 30
0.0
 10
16674.86263289885
 20
-4030.613307965842
 30
0.0
 10
16677.76320338128
 20
-4031.384360087442
 30
0.0
 10
16681.49386701919
 20
-4032.357759028724
 30
0.0
 10
16686.05822014952
 20
-4033.509622746802
 30
0.0
 10
16691.45787540307
 20
-4034.823627320738
 30
0.0
 10
16700.02260014469
 20
-4036.821593767045
 30
0.0
 10
16710.85526957434
 20
-4039.171909284442
 30
0.0
 10
16725.80300946724
 20
-4042.140065057598
 30
0.0
 10
16742.28543153793
 20
-4045.164828677832
 30
0.0
 10
16760.87623085733
 20
-4048.40173747212
 30
0.0
 10
16773.27798491052
 20
-4050.526844812039
 30
0.0
 10
16779.50000929654
 20
-4051.593022195909
 30
0.0
  0
LINE
  5
EB
330
2
100
AcDbEntity
  8
0
  6
Continuous
 62
     7
 48
25.4
100
AcDbLine
 10
16779.50000929724
 20
-3987.289152270662
 30
0.0
 11
16779.50000929724
 21
-3815.075978320662
 31
0.0
  0
LINE
  5
EC
330
2
100
AcDbEntity
  8
0
  6
Continuous
 62
     7
 48
25.4
100
AcDbLine
 10
16779.50000929724
 20
-4051.593022196661
 30
0.0
 11
16779.50000929724
 21
-3987.289152270662
 31
0.0
  0
LINE
  5
ED
330
2
100
AcDbEntity
  8
0
  6
Continuous
 62
     7
 48
25.4
100
AcDbLine
 10
16779.50000929724
 20
-4051.593022196661
 30
0.0
 11
16779.50000929724
 21
-4343.042553608662
 31
0.0
  0
LINE
  5
EE
330
2
100
AcDbEntity
  8
0
  6
Continuous
 62
     7
 48
25.4
100
AcDbLine
 10
16779.50000929724
 20
-3815.075978320662
 30
0.0
 11
16779.50000929724
 21
-3692.920300100663
 31
0.0
  0
LINE
  5
EF
330
2
100
AcDbEntity
  8
0
  6
Continuous
 62
     7
 48
25.4
100
AcDbLine
 10
16815.45060868925
 20
-3858.420300100661
 30
0.0
 11
16779.50000929724
 21
-3858.420300100661
 31
0.0
  0
LINE
  5
F0
330
2
100
AcDbEntity
  8
0
  6
Continuous
 62
     7
 48
25.4
100
AcDbLine
 10
16343.50000929724
 20
-3858.420300100661
 30
0.0
 11
16310.45060868925
 21
-3858.420300100661
 31
0.0
  0
LINE
  5
F1
330
2
100
AcDbEntity
  8
0
  6
Continuous
 62
     7
 48
25.4
100
AcDbLine
 10
16335.45060868924
 20
-3883.420300100661
 30
0.0
 11
16343.50000929724
 21
-3883.420300100661
 31
0.0
  0
LINE
  5
F2
330
2
100
AcDbEntity
  8
0
  6
Continuous
 62
     7
 48
25.4
100
AcDbLine
 10
16779.50000929724
 20
-3883.420300100661
 30
0.0
 11
16790.45060868924
 21
-3883.420300100661
 31
0.0
  0
LINE
  5
F3
330
2
100
AcDbEntity
  8
0
  6
Continuous
 62
     7
 48
25.4
100
AcDbLine
 10
16310.45060868925
 20
-3858.420300100661
 30
0.0
 11
16310.45060868925
 21
-4208.420300100661
 31
0.0
  0
LINE
  5
F4
330
2
100
AcDbEntity
  8
0
  6
Continuous
 62
     7
 48
25.4
100
AcDbLine
 10
16335.45060868924
 20
-4208.420300100661
 30
0.0
 11
16335.45060868924
 21
-3883.420300100661
 31
0.0
  0
ARC
  5
F5
330
2
100
AcDbEntity
  8
0
  6
Continuous
 62
     7
 48
25.4
100
AcDbCircle
 10
16322.95060868925
 20
-4208.420300100661
 30
0.0
 40
12.50000000000001
100
AcDbArc
 50
180.0
 51
270.0
  0
ARC
  5
F6
330
2
100
AcDbEntity
  8
0
  6
Continuous
 62
     7
 48
25.4
100
AcDbCircle
 10
16322.95060868925
 20
-4208.420300100661
 30
0.0
 40
12.50000000000007
100
AcDbArc
 50
270.0
 51
0.0
  0
ARC
  5
F7
330
2
100
AcDbEntity
  8
0
  6
Continuous
 62
     7
 48
25.4
100
AcDbCircle
 10
16802.95060868925
 20
-4208.420300100661
 30
0.0
 40
12.50000000000007
100
AcDbArc
 50
180.0
 51
270.0
  0
ARC
  5
F8
330
2
100
AcDbEntity
  8
0
  6
Continuous
 62
     7
 48
25.4
100
AcDbCircle
 10
16802.95060868925
 20
-4208.420300100661
 30
0.0
 40
12.50000000000007
100
AcDbArc
 50
270.0
 51
0.0
  0
LINE
  5
F9
330
2
100
AcDbEntity
  8
0
  6
Continuous
 62
     7
 48
25.4
100
AcDbLine
 10
16815.45060868925
 20
-4208.420300100661
 30
0.0
 11
16815.45060868925
 21
-3858.420300100661
 31
0.0
  0
LINE
  5
FA
330
2
100
AcDbEntity
  8
0
  6
Continuous
 62
     7
 48
25.4
100
AcDbLine
 10
16790.45060868924
 20
-3883.420300100661
 30
0.0
 11
16790.45060868924
 21
-4208.420300100661
 31
0.0
  0
LINE
  5
FB
330
2
100
AcDbEntity
  8
0
  6
Continuous
 62
     7
 48
25.4
100
AcDbLine
 10
16196.50000929724
 20
-3833.359203160662
 30
0.0
 11
16196.50000929724
 21
-3827.359203160663
 31
0.0
  0
ARC
  5
FC
330
2
100
AcDbEntity
  8
0
  6
Continuous
 62
     7
 48
25.4
100
AcDbCircle
 10
16200.50000929724
 20
-3833.359203160662
 30
0.0
 40
4.0
100
AcDbArc
 50
180.0
 51
270.0
  0
LINE
  5
FD
330
2
100
AcDbEntity
  8
0
  6
Continuous
 62
     7
 48
25.4
100
AcDbLine
 10
17799.74883261924
 20
-3852.359203160663
 30
0.0
 11
16779.50000929724
 21
-3852.359203160663
 31
0.0
  0
LINE
  5
FE
330
2
100
AcDbEntity
  8
0
  6
Continuous
 62
     7
 48
25.4
100
AcDbLine
 10
16343.50000929724
 20
-3852.359203160663
 30
0.0
 11
16293.25118597324
 21
-3852.359203160663
 31
0.0
  0
LINE
  5
FF
330
2
100
AcDbEntity
  8
0
  6
Continuous
 62
     7
 48
25.4
100
AcDbLine
 10
16206.50000929724
 20
-3837.359203160662
 30
0.0
 11
16200.50000929724
 21
-3837.359203160662
 31
0.0
  0
LINE
  5
100
330
2
100
AcDbEntity
  8
0
  6
Continuous
 62
     7
 48
25.4
100
AcDbLine
 10
17886.50000929724
 20
-3837.359203160662
 30
0.0
 11
17803.22453929724
 21
-3852.054874336662
 31
0.0
  0
ARC
  5
101
330
2
100
AcDbEntity
  8
0
  6
Continuous
 62
     7
 48
25.4
100
AcDbCircle
 10
17799.74883261924
 20
-3832.359203160662
 30
0.0
 40
20.0
100
AcDbArc
 50
270.0
 51
280.007979801547
  0
ARC
  5
102
330
2
100
AcDbEntity
  8
0
  6
Continuous
 62
     7
 48
25.4
100
AcDbCircle
 10
16293.25118597324
 20
-3832.359203160662
 30
0.0
 40
20.0
100
AcDbArc
 50
259.9920201984529
 51
270.0
  0
ARC
  5
103
330
2
100
AcDbEntity
  8
0
  6
Continuous
 62
     7
 48
25.4
100
AcDbCircle
 10
16204.74883261924
 20
-3857.359203160662
 30
0.0
 40
19.99999999999997
100
AcDbArc
 50
82.3039482780253
 51
90.0
  0
LINE
  5
104
330
2
100
AcDbEntity
  8
0
  6
Continuous
 62
     7
 48
25.4
100
AcDbLine
 10
16289.77547929524
 20
-3852.054874336662
 30
0.0
 11
16207.42719053926
 21
-3837.539354552455
 31
0.0
  0
ELLIPSE
  5
105
330
2
100
AcDbEntity
  8
0
  6
Continuous
 62
     7
 48
25.4
100
AcDbEllipse
 10
16216.13970651324
 20
-3783.861291294661
 30
0.0
 11
19.81984860841081
 21
2.678357920027219
 31
0.0
210
0.0
220
0.0
230
1.0
 40
0.7039005128000002
 41
2.951919959409194
 42
3.141592653589792
  0
ELLIPSE
  5
106
330
2
100
AcDbEntity
  8
0
  6
Continuous
 62
     7
 48
25.4
100
AcDbEllipse
 10
16215.81489677323
 20
-3781.846465732662
 30
0.0
 11
19.65744373867467
 21
3.685770701005603
 31
0.0
210
0.0
220
0.0
230
1.0
 40
0.8064254259999998
 41
2.913144008768758
 42
3.141592653589796
  0
ELLIPSE
  5
107
330
2
100
AcDbEntity
  8
0
  6
Continuous
 62
     7
 48
25.4
100
AcDbEllipse
 10
16216.13970651324
 20
-3110.857115026662
 30
0.0
 11
-19.81984860831934
 21
2.678357920026906
 31
0.0
210
0.0
220
0.0
230
1.0
 40
0.7039005128
 41
0.0
 42
0.1896726941814828
  0
ELLIPSE
  5
108
330
2
100
AcDbEntity
  8
0
  6
Continuous
 62
     7
 48
25.4
100
AcDbEllipse
 10
16215.81489677323
 20
-3112.871940588663
 30
0.0
 11
-19.65744373872736
 21
3.685770701003175
 31
0.0
210
0.0
220
0.0
230
1.0
 40
0.8064254259999998
 41
0.0
 42
0.2284486448203008
  0
ELLIPSE
  5
109
330
2
100
AcDbEntity
  8
0
  6
Continuous
 62
     7
 48
25.4
100
AcDbEllipse
 10
16176.50000929524
 20
-3105.500399186662
 30
0.0
 11
0.0000000000164001
 21
-40.00000000033021
 31
0.0
210
0.0
220
0.0
230
1.0
 40
0.5
 41
1.436474884842096
 42
1.570796326793953
  0
ARC
  5
10A
330
2
100
AcDbEntity
  8
0
  6
Continuous
 62
     7
 48
25.4
100
AcDbCircle
 10
16176.50000929724
 20
-3105.500399186662
 30
0.0
 40
19.99999999999997
100
AcDbArc
 50
352.3039482780253
 51
0.0
  0
ARC
  5
10B
330
2
100
AcDbEntity
  8
0
  6
Continuous
 62
     7
 48
25.4
100
AcDbCircle
 10
16156.68016068924
 20
-3105.500399186662
 30
0.0
 40
39.99999999998335
100
AcDbArc
 50
349.3803447238193
 51
352.3039482780253
  0
LINE
  5
10C
330
2
100
AcDbEntity
  8
0
  6
Continuous
 62
     7
 48
25.4
100
AcDbLine
 10
16181.84256555724
 20
-3185.53223643266
 30
0.0
 11
16196.15745303524
 21
-3109.186169886662
 31
0.0
  0
ARC
  5
10D
330
2
100
AcDbEntity
  8
0
  6
Continuous
 62
     7
 48
25.4
100
AcDbCircle
 10
16201.50000929724
 20
-3189.218007134661
 30
0.0
 40
20.00000000000002
100
AcDbArc
 50
169.3803447238192
 51
180.0
  0
LINE
  5
10E
330
2
100
AcDbEntity
  8
0
  6
Continuous
 62
     7
 48
25.4
100
AcDbLine
 10
16181.50000929724
 20
-3705.500399186661
 30
0.0
 11
16181.50000929724
 21
-3189.218007134661
 31
0.0
  0
LINE
  5
10F
330
2
100
AcDbEntity
  8
0
  6
Continuous
 62
     7
 48
25.4
100
AcDbLine
 10
16196.31985790524
 20
-3783.861291294661
 30
0.0
 11
16196.31985790524
 21
-3110.857115026662
 31
0.0
  0
ELLIPSE
  5
110
330
2
100
AcDbEntity
  8
0
  6
Continuous
 62
     7
 48
25.4
100
AcDbEllipse
 10
16176.50000929724
 20
-3789.218007134661
 30
0.0
 11
-0.0000000000520591
 21
39.99999999938192
 31
0.0
210
0.0
220
0.0
230
1.0
 40
0.5
 41
4.712388980382105
 42
4.846710422337157
  0
ARC
  5
111
330
2
100
AcDbEntity
  8
0
  6
Continuous
 62
     7
 48
25.4
100
AcDbCircle
 10
16176.50000929724
 20
-3789.218007134661
 30
0.0
 40
19.9999999999998
100
AcDbArc
 50
0.0
 51
7.6960517219747
  0
ARC
  5
112
330
2
100
AcDbEntity
  8
0
  6
Continuous
 62
     7
 48
25.4
100
AcDbCircle
 10
16156.68016068924
 20
-3789.218007134661
 30
0.0
 40
40.00000000000044
100
AcDbArc
 50
7.6960517219747
 51
10.61965527618074
  0
LINE
  5
113
330
2
100
AcDbEntity
  8
0
  6
Continuous
 62
     7
 48
25.4
100
AcDbLine
 10
16196.15745303524
 20
-3785.532236432663
 30
0.0
 11
16181.84256555724
 21
-3709.186169886662
 31
0.0
  0
ARC
  5
114
330
2
100
AcDbEntity
  8
0
  6
Continuous
 62
     7
 48
25.4
100
AcDbCircle
 10
16201.50000929724
 20
-3705.500399186661
 30
0.0
 40
20.0
100
AcDbArc
 50
180.0
 51
190.6196552761807
  0
LINE
  5
115
330
2
100
AcDbEntity
  8
0
  6
Continuous
 62
     7
 48
25.4
100
AcDbLine
 10
16307.10486021124
 20
-3755.359203160662
 30
0.0
 11
16343.50000929724
 21
-3755.359203160662
 31
0.0
  0
CIRCLE
  5
116
330
2
100
AcDbEntity
  8
0
  6
Continuous
 62
     7
 48
25.4
100
AcDbCircle
 10
16276.50000929724
 20
-3740.359203160662
 30
0.0
 40
29.0
  0
CIRCLE
  5
117
330
2
100
AcDbEntity
  8
0
  6
Continuous
 62
     7
 48
25.4
100
AcDbCircle
 10
16276.50000929724
 20
-3740.359203160662
 30
0.0
 40
34.0
  0
LINE
  5
118
330
2
100
AcDbEntity
  8
0
  6
Continuous
 62
     7
 48
25.4
100
AcDbLine
 10
16343.50000929724
 20
-3725.359203160663
 30
0.0
 11
16307.08235419724
 21
-3725.359203160663
 31
0.0
  0
ARC
  5
119
330
2
100
AcDbEntity
  8
0
  6
Continuous
 62
     7
 48
25.4
100
AcDbCircle
 10
16276.50000929724
 20
-3740.359203160662
 30
0.0
 40
56.0
100
AcDbArc
 50
15.53679406824044
 51
344.4632059317596
  0
ARC
  5
11A
330
2
100
AcDbEntity
  8
0
  6
Continuous
 62
     7
 48
25.4
100
AcDbCircle
 10
16276.50000929724
 20
-3740.359203160662
 30
0.0
 40
35.94840344592762
100
AcDbArc
 50
24.6620169997942
 51
335.3379830002058
  0
ARC
  5
11B
330
2
100
AcDbEntity
  8
0
 48
25.4
370
     9
100
AcDbCircle
 10
16716.69743691725
 20
-3462.359203160661
 30
0.0
 40
175.0008092245635
100
AcDbArc
 50
90.17424177937785
 51
269.8257582206221
  0
LINE
  5
11C
330
2
100
AcDbEntity
  8
0
 48
25.4
370
     9
100
AcDbLine
 10
17578.22185288414
 20
-3449.442603083588
 30
0.0
 11
17578.22185288414
 21
-3511.983292490312
 31
0.0
  0
LINE
  5
11D
330
2
100
AcDbEntity
  8
0
 48
25.4
370
     9
100
AcDbLine
 10
16716.16524404597
 20
-3287.359203160661
 30
0.0
 11
17528.22543752414
 21
-3287.359203160661
 31
0.0
  0
LINE
  5
11E
330
2
100
AcDbEntity
  8
0
 48
25.4
370
     9
100
AcDbLine
 10
16230.91155202923
 20
-3437.35920316068
 30
0.0
 11
16230.91155202923
 21
-3462.359203160661
 31
0.0
  0
ARC
  5
11F
330
2
100
AcDbEntity
  8
0
 48
25.4
100
AcDbCircle
 10
16520.91155202923
 20
-3487.359203160662
 30
0.0
 40
290.0
100
AcDbArc
 50
180.0
 51
232.2828430828006
  0
LINE
  5
120
330
2
100
AcDbEntity
  8
0
 48
25.4
370
     9
100
AcDbLine
 10
16230.91155202923
 20
-3487.359203160642
 30
0.0
 11
16230.91155202923
 21
-3462.359203160662
 31
0.0
  0
LINE
  5
121
330
2
100
AcDbEntity
  8
0
 48
25.4
370
     9
100
AcDbLine
 10
16716.16524404597
 20
-3637.359203160662
 30
0.0
 11
17528.22543752414
 21
-3637.359203160661
 31
0.0
  0
ARC
  5
122
330
2
100
AcDbEntity
  8
0
  6
Continuous
 62
     7
 48
25.4
100
AcDbCircle
 10
16401.08466637784
 20
-4337.749396912226
 30
0.0
 40
57.82741771024149
100
AcDbArc
 50
185.2518450675061
 51
272.9533384683463
  0
ARC
  5
123
330
2
100
AcDbEntity
  8
0
 48
25.4
370
     9
100
AcDbCircle
 10
17867.24755941216
 20
-3456.574655576087
 30
0.0
 40
25.0
100
AcDbArc
 50
258.4303049333276
 51
101.6522920882369
  0
LINE
  5
124
330
2
100
AcDbEntity
  8
0
 48
25.4
370
     9
100
AcDbLine
 10
17862.23356503079
 20
-3481.066692248106
 30
0.0
 11
17794.59434170221
 21
-3474.197520517741
 31
0.0
  0
LINE
  5
125
330
2
100
AcDbEntity
  8
0
 48
25.4
370
     9
100
AcDbLine
 10
17862.19826277847
 20
-3432.089872475048
 30
0.0
 11
17794.69210850104
 21
-3438.961351544256
 31
0.0
  0
ARC
  5
126
330
2
100
AcDbEntity
  8
0
 48
25.4
370
     9
100
AcDbCircle
 10
17794.64322510163
 20
-3456.579436030998
 30
0.0
 40
17.61815230291333
100
AcDbArc
 50
89.84102668546155
 51
269.8410266854616
  0
TEXT
  5
127
330
2
100
AcDbEntity
  8
0
370
     9
100
AcDbText
 10
16257.75227176502
 20
-3039.825344471561
 30
0.0
 40
20.0
  1
PHOENIX mod. 1 & 2 versione sinistra
100
AcDbText
  0
ENDSEC
  0
SECTION
  2
OBJECTS
  0
DICTIONARY
  5
9
330
0
100
AcDbDictionary
281
     1
  3
ACAD_COLOR
350
31
  3
ACAD_GROUP
350
2C
  3
ACAD_LAYOUT
350
F
  3
ACAD_MATERIAL
350
B
  3
ACAD_MLINESTYLE
350
2D
  3
ACAD_PLOTSETTINGS
350
2E
  3
ACAD_PLOTSTYLENAME
350
8
  3
ACAD_TABLESTYLE
350
32
  3
ACAD_VISUALSTYLE
350
26
  3
AcDbVariableDictionary
350
A7
  0
DICTIONARY
  5
27
330
23
100
AcDbDictionary
280
     1
281
     1
  0
DICTIONARY
  5
16
330
15
100
AcDbDictionary
280
     1
281
     1
  3
ACAD_LAYERFILTERS
360
17
  3
ACAD_LAYERSTATES
360
18
  3
ACLYDICTIONARY
360
19
  0
DICTIONARY
  5
3
330
2
100
AcDbDictionary
280
     1
281
     1
  3
ACAD_SORTENTS
360
98
  0
DICTIONARY
  5
39
330
38
100
AcDbDictionary
280
     1
281
     1
  3
ACAD_SORTENTS
360
97
  0
DICTIONARY
  5
31
102
{ACAD_REACTORS
330
9
102
}
330
9
100
AcDbDictionary
281
     1
  0
DICTIONARY
  5
2C
102
{ACAD_REACTORS
330
9
102
}
330
9
100
AcDbDictionary
281
     1
  0
DICTIONARY
  5
F
102
{ACAD_REACTORS
330
9
102
}
330
9
100
AcDbDictionary
281
     1
  3
Layout1
350
14
  3
Model
350
E
  0
DICTIONARY
  5
B
102
{ACAD_REACTORS
330
9
102
}
330
9
100
AcDbDictionary
281
     1
  3
ByBlock
350
30
  3
ByLayer
350
2F
  3
Global
350
A
  0
DICTIONARY
  5
2D
102
{ACAD_REACTORS
330
9
102
}
330
9
100
AcDbDictionary
281
     1
  3
Standard
350
33
  0
DICTIONARY
  5
2E
102
{ACAD_REACTORS
330
9
102
}
330
9
100
AcDbDictionary
281
     1
  0
ACDBDICTIONARYWDFLT
  5
8
102
{ACAD_REACTORS
330
9
102
}
330
9
100
AcDbDictionary
281
     1
  3
Normal
350
7
100
AcDbDictionaryWithDefault
340
7
  0
DICTIONARY
  5
32
102
{ACAD_REACTORS
330
9
102
}
330
9
100
AcDbDictionary
281
     1
  3
Standard
350
34
  0
DICTIONARY
  5
26
102
{ACAD_REACTORS
330
9
102
}
330
9
100
AcDbDictionary
281
     1
  3
2dWireframe
350
25
  3
3D Hidden
350
B3
  3
3dWireframe
350
36
  3
Basic
350
B2
  3
Brighten
350
B6
  3
ColorChange
350
BA
  3
Conceptual
350
B4
  3
Dim
350
B5
  3
Facepattern
350
B9
  3
Flat
350
AE
  3
FlatWithEdges
350
AF
  3
Gouraud
350
B0
  3
GouraudWithEdges
350
B1
  3
Linepattern
350
B8
  3
Realistic
350
35
  3
Thicken
350
B7
  0
DICTIONARY
  5
A7
102
{ACAD_REACTORS
330
9
102
}
330
9
100
AcDbDictionary
281
     1
  3
CTABLESTYLE
350
A8
  3
DIMASSOC
350
AC
  3
HIDETEXT
350
AB
  3
INDEXCTL
350
AA
  3
SORTENTS
350
A9
  0
DICTIONARY
  5
17
102
{ACAD_REACTORS
330
16
102
}
330
16
100
AcDbDictionary
281
     1
  0
DICTIONARY
  5
18
102
{ACAD_REACTORS
330
16
102
}
330
16
100
AcDbDictionary
281
     1
  0
DICTIONARY
  5
19
102
{ACAD_REACTORS
330
16
102
}
330
16
100
AcDbDictionary
281
     1
1001
ACAD
1000
<All
  0
SORTENTSTABLE
  5
98
102
{ACAD_REACTORS
330
3
102
}
330
3
100
AcDbSortentsTable
330
2
331
121
  5
121
331
110
  5
110
331
FD
  5
FD
331
EC
  5
EC
331
DB
  5
DB
331
10E
  5
10E
331
FB
  5
FB
331
11F
  5
11F
331
EA
  5
EA
331
D9
  5
D9
331
10C
  5
10C
331
F9
  5
F9
331
11D
  5
11D
331
E8
  5
E8
331
D7
  5
D7
331
10A
  5
10A
331
F7
  5
F7
331
11B
  5
11B
331
E6
  5
E6
331
D5
  5
D5
331
108
  5
108
331
F5
  5
F5
331
119
  5
119
331
106
  5
106
331
E4
  5
E4
331
D3
  5
D3
331
F3
  5
F3
331
D1
  5
D1
331
117
  5
117
331
104
  5
104
331
E2
  5
E2
331
126
  5
126
331
F1
  5
F1
331
115
  5
115
331
102
  5
102
331
E0
  5
E0
331
CF
  5
CF
331
124
  5
124
331
113
  5
113
331
100
  5
100
331
EF
  5
EF
331
DE
  5
DE
331
122
  5
122
331
111
  5
111
331
FE
  5
FE
331
ED
  5
ED
331
DC
  5
DC
331
120
  5
120
331
10F
  5
10F
331
FC
  5
FC
331
EB
  5
EB
331
DA
  5
DA
331
10D
  5
10D
331
FA
  5
FA
331
11E
  5
11E
331
E9
  5
E9
331
D8
  5
D8
331
10B
  5
10B
331
F8
  5
F8
331
11C
  5
11C
331
E7
  5
E7
331
D6
  5
D6
331
109
  5
109
331
F6
  5
F6
331
11A
  5
11A
331
107
  5
107
331
E5
  5
E5
331
D4
  5
D4
331
F4
  5
F4
331
118
  5
118
331
105
  5
105
331
E3
  5
E3
331
D2
  5
D2
331
127
  5
127
331
F2
  5
F2
331
116
  5
116
331
103
  5
103
331
E1
  5
E1
331
D0
  5
D0
331
125
  5
125
331
F0
  5
F0
331
114
  5
114
331
101
  5
101
331
DF
  5
DF
331
CE
  5
CE
331
123
  5
123
331
112
  5
112
331
FF
  5
FF
331
EE
  5
EE
331
DD
  5
DD
  0
SORTENTSTABLE
  5
97
102
{ACAD_REACTORS
330
39
102
}
330
39
100
AcDbSortentsTable
330
38
  0
LAYOUT
  5
14
102
{ACAD_REACTORS
330
F
102
}
330
F
100
AcDbPlotSettings
  1

  2

  4

  6

 40
0.0
 41
0.0
 42
0.0
 43
0.0
 44
0.0
 45
0.0
 46
0.0
 47
0.0
 48
0.0
 49
0.0
140
0.0
141
0.0
142
1.0
143
1.0
 70
   688
 72
     0
 73
     0
 74
     5
  7

 75
    16
147
1.0
 76
     0
 77
     2
 78
   300
148
0.0
149
0.0
100
AcDbLayout
  1
Layout1
 70
     1
 71
     1
 10
0.0
 20
0.0
 11
12.0
 21
9.0
 12
0.0
 22
0.0
 32
0.0
 14
0.0
 24
0.0
 34
0.0
 15
431.8
 25
279.4
 35
0.0
146
0.0
 13
0.0
 23
0.0
 33
0.0
 16
1.0
 26
0.0
 36
0.0
 17
0.0
 27
1.0
 37
0.0
 76
     0
330
11
  0
LAYOUT
  5
E
102
{ACAD_REACTORS
330
F
102
}
330
F
100
AcDbPlotSettings
  1

  2
PrimoPDF
  4
A4
  6

 40
3.174999952316283
 41
3.174999952316283
 42
3.175003051757812
 43
3.17498779296875
 44
209.8886566162109
 45
297.0530090332031
 46
0.0
 47
0.0
 48
19511.11100844126
 49
-5389.374767771624
140
23493.51808027309
141
-1160.229401081451
142
1.0
143
20.0
 70
 11936
 72
     1
 73
     1
 74
     4
  7

 75
     0
147
0.0457551531797123
 76
     0
 77
     2
 78
   300
148
-19511.11100844126
149
5389.374767771624
100
AcDbLayout
  1
Model
 70
     1
 71
     0
 10
0.0
 20
0.0
 11
431.8
 21
279.4
 12
0.0
 22
0.0
 32
0.0
 14
0.0
 24
0.0
 34
0.0
 15
431.8
 25
279.4
 35
0.0
146
0.0
 13
0.0
 23
0.0
 33
0.0
 16
1.0
 26
0.0
 36
0.0
 17
0.0
 27
1.0
 37
0.0
 76
     0
330
2
331
24
1001
ACAD_PSEXT
1000
PrimoPDF
1000
PrimoPDF
1000
PrimoPort:
1000

1070
     0
  0
MATERIAL
  5
30
102
{ACAD_XDICTIONARY
360
C6
102
}
102
{ACAD_REACTORS
330
B
102
}
330
B
100
AcDbMaterial
  1
ByBlock
  0
MATERIAL
  5
2F
102
{ACAD_XDICTIONARY
360
C4
102
}
102
{ACAD_REACTORS
330
B
102
}
330
B
100
AcDbMaterial
  1
ByLayer
  0
MATERIAL
  5
A
102
{ACAD_XDICTIONARY
360
BE
102
}
102
{ACAD_REACTORS
330
B
102
}
330
B
100
AcDbMaterial
  1
Global
  0
MLINESTYLE
  5
33
102
{ACAD_REACTORS
330
2D
102
}
330
2D
100
AcDbMlineStyle
  2
STANDARD
 70
     0
  3

 62
   256
 51
90.0
 52
90.0
 71
     2
 49
0.5
 62
   256
  6
BYLAYER
 49
-0.5
 62
   256
  6
BYLAYER
  0
ACDBPLACEHOLDER
  5
7
102
{ACAD_REACTORS
330
8
102
}
330
8
  0
TABLESTYLE
  5
34
102
{ACAD_REACTORS
330
32
102
}
330
32
100
AcDbTableStyle
  3
Standard
 70
     0
 71
     0
 40
0.06
 41
0.06
280
     0
281
     0
  7
Standard
140
0.18
170
     2
 62
     0
 63
     7
283
     0
 90
        4
 91
        0
  1

274
    -2
284
     1
 64
     0
275
    -2
285
     1
 65
     0
276
    -2
286
     1
 66
     0
277
    -2
287
     1
 67
     0
278
    -2
288
     1
 68
     0
279
    -2
289
     1
 69
     0
  7
Standard
140
0.25
170
     5
 62
     0
 63
     7
283
     0
 90
        4
 91
        0
  1

274
    -2
284
     1
 64
     0
275
    -2
285
     1
 65
     0
276
    -2
286
     1
 66
     0
277
    -2
287
     1
 67
     0
278
    -2
288
     1
 68
     0
279
    -2
289
     1
 69
     0
  7
Standard
140
0.18
170
     5
 62
     0
 63
     7
283
     0
 90
        4
 91
        0
  1

274
    -2
284
     1
 64
     0
275
    -2
285
     1
 65
     0
276
    -2
286
     1
 66
     0
277
    -2
287
     1
 67
     0
278
    -2
288
     1
 68
     0
279
    -2
289
     1
 69
     0
  0
VISUALSTYLE
  5
25
102
{ACAD_REACTORS
330
26
102
}
330
26
100
AcDbVisualStyle
  2
2dWireframe
 70
     4
 71
     0
 72
     2
 73
     0
 90
        0
 40
-0.6
 41
-30.0
 62
     5
 63
     7
 74
     1
 91
        4
 64
     7
 65
   257
 75
     1
175
     1
 42
1.0
 92
        0
 66
   257
 43
1.0
 76
     1
 77
     6
 78
     2
 67
     7
 79
     5
170
     0
171
     0
290
     0
174
     0
 93
        1
 44
0.0
173
     0
291
     0
 45
0.0
1001
ACAD
1000
AcDbSavedByObjectVersion
1070
     0
  0
VISUALSTYLE
  5
B3
102
{ACAD_REACTORS
330
26
102
}
330
26
100
AcDbVisualStyle
  2
3D Hidden
 70
     6
 71
     1
 72
     2
 73
     2
 90
        0
 40
-0.6
 41
-30.0
 62
     5
 63
     7
 74
     2
 91
        2
 64
     7
 65
   257
 75
     2
175
     1
 42
40.0
 92
        0
 66
   257
 43
1.0
 76
     1
 77
     6
 78
     2
 67
     7
 79
     3
170
     0
171
     0
290
     0
174
     0
 93
        1
 44
0.0
173
     0
291
     0
 45
0.0
1001
ACAD
1000
AcDbSavedByObjectVersion
1070
     0
  0
VISUALSTYLE
  5
36
102
{ACAD_REACTORS
330
26
102
}
330
26
100
AcDbVisualStyle
  2
3dWireframe
 70
     5
 71
     0
 72
     2
 73
     0
 90
        0
 40
-0.6
 41
-30.0
 62
     5
 63
     7
 74
     1
 91
        4
 64
     7
 65
   257
 75
     1
175
     1
 42
1.0
 92
        0
 66
   257
 43
1.0
 76
     1
 77
     6
 78
     2
 67
     7
 79
     5
170
     0
171
     0
290
     0
174
     0
 93
        1
 44
0.0
173
     0
291
     0
 45
0.0
1001
ACAD
1000
AcDbSavedByObjectVersion
1070
     0
  0
VISUALSTYLE
  5
B2
102
{ACAD_REACTORS
330
26
102
}
330
26
100
AcDbVisualStyle
  2
Basic
 70
     7
 71
     1
 72
     0
 73
     1
 90
        0
 40
-0.6
 41
-30.0
 62
     5
 63
     7
 74
     0
 91
        4
 64
     7
 65
   257
 75
     1
175
     1
 42
1.0
 92
        8
 66
     7
 43
1.0
 76
     1
 77
     6
 78
     2
 67
     7
 79
     5
170
     0
171
     0
290
     0
174
     0
 93
        1
 44
0.0
173
     0
291
     1
 45
0.0
1001
ACAD
1000
AcDbSavedByObjectVersion
1070
     0
  0
VISUALSTYLE
  5
B6
102
{ACAD_REACTORS
330
26
102
}
330
26
100
AcDbVisualStyle
  2
Brighten
 70
    12
 71
     2
 72
     2
 73
     0
 90
        0
 40
-0.6
 41
-30.0
 62
     5
 63
     7
 74
     1
 91
        4
 64
     7
 65
   257
 75
     1
175
     1
 42
1.0
 92
        8
 66
     7
 43
1.0
 76
     1
 77
     6
 78
     2
 67
     7
 79
     5
170
     0
171
     0
290
     0
174
     0
 93
        1
 44
50.0
173
     0
291
     1
 45
0.0
1001
ACAD
1000
AcDbSavedByObjectVersion
1070
     0
  0
VISUALSTYLE
  5
BA
102
{ACAD_REACTORS
330
26
102
}
330
26
100
AcDbVisualStyle
  2
ColorChange
 70
    16
 71
     2
 72
     2
 73
     3
 90
        0
 40
-0.6
 41
-30.0
 62
     5
 63
     8
 74
     1
 91
        4
 64
     7
 65
   257
 75
     1
175
     1
 42
1.0
 92
        8
 66
     8
 43
1.0
 76
     1
 77
     6
 78
     2
 67
     7
 79
     5
170
     0
171
     0
290
     0
174
     0
 93
        1
 44
0.0
173
     0
291
     1
 45
0.0
1001
ACAD
1000
AcDbSavedByObjectVersion
1070
     0
  0
VISUALSTYLE
  5
B4
102
{ACAD_REACTORS
330
26
102
}
330
26
100
AcDbVisualStyle
  2
Conceptual
 70
     9
 71
     3
 72
     2
 73
     0
 90
        0
 40
-0.6
 41
-30.0
 62
     5
 63
     7
 74
     2
 91
        2
 64
     7
 65
   257
 75
     1
175
     1
 42
40.0
 92
        8
 66
     7
 43
1.0
 76
     1
 77
     6
 78
     2
 67
     7
 79
     3
170
     0
171
     0
290
     0
174
     0
 93
        1
 44
0.0
173
     0
291
     0
 45
0.0
1001
ACAD
1000
AcDbSavedByObjectVersion
1070
     0
  0
VISUALSTYLE
  5
B5
102
{ACAD_REACTORS
330
26
102
}
330
26
100
AcDbVisualStyle
  2
Dim
 70
    11
 71
     2
 72
     2
 73
     0
 90
        0
 40
-0.6
 41
-30.0
 62
     5
 63
     7
 74
     1
 91
        4
 64
     7
 65
   257
 75
     1
175
     1
 42
1.0
 92
        8
 66
     7
 43
1.0
 76
     1
 77
     6
 78
     2
 67
     7
 79
     5
170
     0
171
     0
290
     0
174
     0
 93
        1
 44
-50.0
173
     0
291
     1
 45
0.0
1001
ACAD
1000
AcDbSavedByObjectVersion
1070
     0
  0
VISUALSTYLE
  5
B9
102
{ACAD_REACTORS
330
26
102
}
330
26
100
AcDbVisualStyle
  2
Facepattern
 70
    15
 71
     2
 72
     2
 73
     0
 90
        0
 40
-0.6
 41
-30.0
 62
     5
 63
     7
 74
     1
 91
        4
 64
     7
 65
   257
 75
     1
175
     1
 42
1.0
 92
        8
 66
     7
 43
1.0
 76
     1
 77
     6
 78
     2
 67
     7
 79
     5
170
     0
171
     0
290
     0
174
     0
 93
        1
 44
0.0
173
     0
291
     1
 45
0.0
1001
ACAD
1000
AcDbSavedByObjectVersion
1070
     0
  0
VISUALSTYLE
  5
AE
102
{ACAD_REACTORS
330
26
102
}
330
26
100
AcDbVisualStyle
  2
Flat
 70
     0
 71
     2
 72
     1
 73
     1
 90
        2
 40
-0.6
 41
30.0
 62
     5
 63
     7
 74
     0
 91
        4
 64
     7
 65
   257
 75
     1
175
     1
 42
1.0
 92
        8
 66
     7
 43
1.0
 76
     1
 77
     6
 78
     2
 67
     7
 79
     5
170
     0
171
     0
290
     0
174
     0
 93
       13
 44
0.0
173
     0
291
     1
 45
0.0
1001
ACAD
1000
AcDbSavedByObjectVersion
1070
     0
  0
VISUALSTYLE
  5
AF
102
{ACAD_REACTORS
330
26
102
}
330
26
100
AcDbVisualStyle
  2
FlatWithEdges
 70
     1
 71
     2
 72
     1
 73
     1
 90
        2
 40
-0.6
 41
30.0
 62
     5
 63
     7
 74
     1
 91
        4
 64
     7
 65
   257
 75
     1
175
     1
 42
1.0
 92
        0
 66
   257
 43
1.0
 76
     1
 77
     6
 78
     2
 67
     7
 79
     5
170
     0
171
     0
290
     0
174
     0
 93
       13
 44
0.0
173
     0
291
     1
 45
0.0
1001
ACAD
1000
AcDbSavedByObjectVersion
1070
     0
  0
VISUALSTYLE
  5
B0
102
{ACAD_REACTORS
330
26
102
}
330
26
100
AcDbVisualStyle
  2
Gouraud
 70
     2
 71
     2
 72
     2
 73
     1
 90
        2
 40
-0.6
 41
30.0
 62
     5
 63
     7
 74
     0
 91
        4
 64
     7
 65
   257
 75
     1
175
     1
 42
1.0
 92
        0
 66
     7
 43
1.0
 76
     1
 77
     6
 78
     2
 67
     7
 79
     5
170
     0
171
     0
290
     0
174
     0
 93
       13
 44
0.0
173
     0
291
     1
 45
0.0
1001
ACAD
1000
AcDbSavedByObjectVersion
1070
     0
  0
VISUALSTYLE
  5
B1
102
{ACAD_REACTORS
330
26
102
}
330
26
100
AcDbVisualStyle
  2
GouraudWithEdges
 70
     3
 71
     2
 72
     2
 73
     1
 90
        2
 40
-0.6
 41
30.0
 62
     5
 63
     7
 74
     1
 91
        4
 64
     7
 65
   257
 75
     1
175
     1
 42
1.0
 92
        0
 66
   257
 43
1.0
 76
     1
 77
     6
 78
     2
 67
     7
 79
     5
170
     0
171
     0
290
     0
174
     0
 93
       13
 44
0.0
173
     0
291
     1
 45
0.0
1001
ACAD
1000
AcDbSavedByObjectVersion
1070
     0
  0
VISUALSTYLE
  5
B8
102
{ACAD_REACTORS
330
26
102
}
330
26
100
AcDbVisualStyle
  2
Linepattern
 70
    14
 71
     2
 72
     2
 73
     0
 90
        0
 40
-0.6
 41
-30.0
 62
     5
 63
     7
 74
     1
 91
        4
 64
     7
 65
   257
 75
     7
175
     7
 42
1.0
 92
        8
 66
     7
 43
1.0
 76
     1
 77
     6
 78
     2
 67
     7
 79
     5
170
     0
171
     0
290
     0
174
     0
 93
        1
 44
0.0
173
     0
291
     1
 45
0.0
1001
ACAD
1000
AcDbSavedByObjectVersion
1070
     0
  0
VISUALSTYLE
  5
35
102
{ACAD_REACTORS
330
26
102
}
330
26
100
AcDbVisualStyle
  2
Realistic
 70
     8
 71
     2
 72
     2
 73
     0
 90
        0
 40
-0.6
 41
-30.0
 62
     5
 63
     7
 74
     1
 91
        0
 64
     7
 65
   257
 75
     1
175
     1
 42
1.0
 92
        8
 66
     8
 43
1.0
 76
     1
 77
     6
 78
     2
 67
     7
 79
     5
170
     0
171
     0
290
     0
174
     0
 93
       13
 44
0.0
173
     0
291
     0
 45
0.0
1001
ACAD
1000
AcDbSavedByObjectVersion
1070
     0
  0
VISUALSTYLE
  5
B7
102
{ACAD_REACTORS
330
26
102
}
330
26
100
AcDbVisualStyle
  2
Thicken
 70
    13
 71
     2
 72
     2
 73
     0
 90
        0
 40
-0.6
 41
-30.0
 62
     5
 63
     7
 74
     1
 91
        4
 64
     7
 65
   257
 75
     1
175
     1
 42
1.0
 92
       12
 66
     7
 43
1.0
 76
     1
 77
     6
 78
     2
 67
     7
 79
     5
170
     0
171
     0
290
     0
174
     0
 93
        1
 44
0.0
173
     0
291
     1
 45
0.0
1001
ACAD
1000
AcDbSavedByObjectVersion
1070
     0
  0
DICTIONARYVAR
  5
A8
102
{ACAD_REACTORS
330
A7
102
}
330
A7
100
DictionaryVariables
280
     0
  1
STANDARD
  0
DICTIONARYVAR
  5
AC
102
{ACAD_REACTORS
330
A7
102
}
330
A7
100
DictionaryVariables
280
     0
  1
1
  0
DICTIONARYVAR
  5
AB
102
{ACAD_REACTORS
330
A7
102
}
330
A7
100
DictionaryVariables
280
     0
  1
1
  0
DICTIONARYVAR
  5
AA
102
{ACAD_REACTORS
330
A7
102
}
330
A7
100
DictionaryVariables
280
     0
  1
0
  0
DICTIONARYVAR
  5
A9
102
{ACAD_REACTORS
330
A7
102
}
330
A7
100
DictionaryVariables
280
     0
  1
127
  0
DICTIONARY
  5
C6
330
30
100
AcDbDictionary
280
     1
281
     1
  3
ACAD_XREC_ROUNDTRIP
360
C7
  0
DICTIONARY
  5
C4
330
2F
100
AcDbDictionary
280
     1
281
     1
  3
ACAD_XREC_ROUNDTRIP
360
C5
  0
DICTIONARY
  5
BE
330
A
100
AcDbDictionary
280
     1
281
     1
  3
ACAD_XREC_ROUNDTRIP
360
BF
  0
XRECORD
  5
C7
102
{ACAD_REACTORS
330
C6
102
}
330
C6
100
AcDbXrecord
280
     1
102
MATERIAL
148
0.0
149
0.0
149
0.0
 93
        0
 94
       63
282
     0
 72
     1
 77
     1
171
     1
175
     1
179
     1
273
     0
  0
XRECORD
  5
C5
102
{ACAD_REACTORS
330
C4
102
}
330
C4
100
AcDbXrecord
280
     1
102
MATERIAL
148
0.0
149
0.0
149
0.0
 93
        0
 94
       63
282
     0
 72
     1
 77
     1
171
     1
175
     1
179
     1
273
     0
  0
XRECORD
  5
BF
102
{ACAD_REACTORS
330
BE
102
}
330
BE
100
AcDbXrecord
280
     1
102
MATERIAL
148
0.0
149
0.0
149
0.0
 93
        0
 94
       63
282
     0
 72
     1
 77
     1
171
     1
175
     1
179
     1
273
     0
  0
ENDSEC
  0
EOF
